Oops, an error
Loading. Please wait.
We have an official Sulfur tab made by UG professional guitarists. Check out the tab »
×
32,753 views 45 this week
9 commentsread comments
1 2 3 4 5
x 14
add to favorites
×
Save as Personal and add changes to this tab that will be seen only by you. Learn more ›
×
You can save this tab as Personal to edit and correct it or add notes. All changes will be seen only by you. Learn more »
launch autoscroll
font size
0
reset
how to read this tab
guitar tuner
backing track
0:00
0:00
edit
Autoscroll
slow
fast
+/-
esc
set tempo
stop
#----------------------------------PLEASE NOTE---------------------------------#
#This file is the author's own work and represents their interpretation of the #
#song. You may only use this file for private study, scholarship, or research. #
#------------------------------------------------------------------------------##

                                     SULFUR
                             As recorded by Slipknot
                     (From the 2008 Album ALL HOPE IS GONE)

Words by Corey Taylor

Music by Slipknot
Transcribed by Yesid Torres Arango

Gtr I (B F# B E G# C#) - 'Mick'
Gtr II (B F# B E G# C#) - 'Jim'

 Intro
  Q=100
 1/4      4/4
  Gtr I
   Q       H    H      Q  Q   E E E E  4x
|------||------------|-----------------||
|------||o-----------|----------------o||
|------||------------|-----------------||
|------||------------|-----------------||
|------||o-6----5----|-3--5--10-9-3-5-o||
|-19\--||--6----5----|-3--5--10-9-3-5--||
|
| Gtr II
|  Q       H    H      Q  Q   E E E E  4x
|------||------------|-----------------||
|------||o-----------|----------------o||
|------||------------|-----------------||
|------||------------|-----------------||
|------||o-8----7----|-3--5--10-9-3-5-o||
|-19\--||--6----5----|-3--5--10-9-3-5--||


    Q=200
    Gtrs I, II
    S S S S S S S S S S S S S S S S   S S S S S S S S S S S S S S S S
||----------------------------------|----------------------------------|
||o---------------------------------|----------------------------------|
||----------------------------------|----------------------------------|
||----------------------------------|----------------------------------|
||o---------------------------------|----------------------------------|
||--6-6-6-6-6-6-6-6-6-6-6-6-6-6-6-6-|-5-5-5-5-5-5-5-5-5-5-5-5-5-5-5-5--|


  S S S S S S S S S S S S S S S S    S  S  S  S S S S S S S S S S S S S
|---------------------------------|--------------------------------------||
|---------------------------------|-------------------------------------o||
|---------------------------------|--------------------------------------||
|---------------------------------|--------------------------------------||
|---------------------------------|-------------------------------------o||
|-3-3-3-3-3-3-3-3-5-5-5-5-5-5-5-5-|-10-10-10-10-9-9-9-9-3-3-3-3-5-5-5-5--||


 Pre-Verse
  Gtr I
      PM--------|       PM--------|         PM--------|       PM--------|
                                      |-3-|
  E E E E E E E E   E E E E E E E E   E E E E E E E E E   E E E E E E E E
|-----------------|-----------------|-------------------|------------------|
|-----------------|-----------------|-------------------|------------------|
|-----------------|-----------------|-------------------|------------------|
|-----------------|-----------------|-------------------|------------------|
|-----------------|-----------------|-5h6p5---5---------|-3h5--------------|
|-6p0-0-0-0-0-0-0-|-1p0-0-0-0-0-0-0-|-------6---6-5-3-5-|-----0-0-0-0-0-0--|


  Gtrs I, II
      PM--------|       PM--------|         PM--------|         PM--------|
                                      |-3-|               |-3-|
  E E E E E E E E   E E E E E E E E   E E E E E E E E E   E E E E E E E E E
|-----------------|-----------------|-------------------|-------------------|
|-----------------|-----------------|-------------------|-------------------|
|-----------------|-----------------|-------------------|-------------------|
|-----------------|-----------------|-------------------|-------------------|
|-----------------|-----------------|-5h6p5---5-8-6-5---|-5h6p5---5---------|
|-6p0-0-0-0-0-0-0-|-1p0-0-0-0-0-0-0-|-------6---------6-|-------6---6-5-3-5-|


   Verse
        PM--------|       PM--------|         PM--------|       PM--------|
                                        |-3-|
    E E E E E E E E   E E E E E E E E   E E E E E E E E E   E E E E E E E E
||------------------|-----------------|-------------------|-----------------|
||o-----------------|-----------------|-------------------|-----------------|
||------------------|-----------------|-------------------|-----------------|
||------------------|-----------------|-------------------|-----------------|
||o-----------------|-----------------|-5h6p5---5---------|-3h5-------------|
||--6p0-0-0-0-0-0-0-|-1p0-0-0-0-0-0-0-|-------6---6-5-3-5-|-----0-0-0-0-0-0-|


      PM--------|       PM--------|         PM--------|         PM--------|
                                      |-3-|               |-3-|
  E E E E E E E E   E E E E E E E E   E E E E E E E E E   E E E E E E E E E
|-----------------|-----------------|-------------------|--------------------||
|-----------------|-----------------|-------------------|-------------------o||
|-----------------|-----------------|-------------------|--------------------||
|-----------------|-----------------|-------------------|--------------------||
|-----------------|-----------------|-5h6p5---5-8-6-5---|-5h6p5---5---------o||
|-6p0-0-0-0-0-0-0-|-1p0-0-0-0-0-0-0-|-------6---------6-|-------6---6-5-3-5--||


 Pre-Verse
  Q=100
  Gtr I
  H    H      Q  Q   E E E E
|-----------|----------------|
|-----------|----------------|
|-----------|----------------|
|-----------|----------------|
|-6----5----|-3--5--10-9-3-5-|
|-6----5----|-3--5--10-9-3-5-|
|
| Gtr II
| TP   TP     TP
| H    H      W
|-----------|----------------|
|-6----6----|-6--------------|
|-----------|----------------|
|-----------|----------------|
|-----------|----------------|
|-----------|----------------|


  Gtr I
   H        H           Q       Q   E E  E E
|--------------------|-----------------------|
|--------------------|-----------------------|
|--------------------|-----------------------|
|--------------------|-----------------------|
|--6--------5--------|--3-------5--10-9--3-5-|
|--6--------5--------|--3-------5--10-9--3-5-|
|
| Gtr II
|  TP   TP  TP  TP      TP  TP  TP  TP   TP
|  Q.   E   Q  +Q       H  +E   E   E    E
|--------------------|-----------------------|
|-13---11--13-(13)---|-13-(13)-11--13---16---|
|--------------------|-----------------------|
|--------------------|-----------------------|
|--------------------|-----------------------|
|--------------------|-----------------------|


   Verse
    Q=200
    Gtrs I, II
        PM--------|       PM--------|         PM--------|       PM--------|
                                        |-3-|
    E E E E E E E E   E E E E E E E E   E E E E E E E E E   E E E E E E E E
||------------------|-----------------|-------------------|-----------------|
||o-----------------|-----------------|-------------------|-----------------|
||------------------|-----------------|-------------------|-----------------|
||------------------|-----------------|-------------------|-----------------|
||o-----------------|-----------------|-5h6p5---5---------|-3h5-------------|
||--6p0-0-0-0-0-0-0-|-1p0-0-0-0-0-0-0-|-------6---6-5-3-5-|-----0-0-0-0-0-0-|


      PM--------|       PM--------|         PM--------|         PM--------|
                                      |-3-|               |-3-|
  E E E E E E E E   E E E E E E E E   E E E E E E E E E   E E E E E E E E E
|-----------------|-----------------|-------------------|--------------------||
|-----------------|-----------------|-------------------|-------------------o||
|-----------------|-----------------|-------------------|--------------------||
|-----------------|-----------------|-------------------|--------------------||
|-----------------|-----------------|-5h6p5---5-8-6-5---|-5h6p5---5---------o||
|-6p0-0-0-0-0-0-0-|-1p0-0-0-0-0-0-0-|-------6---------6-|-------6---6-5-3-5--||


   Chorus
    Gtrs I, II
                                                                        PM----|
    Q.   E E E Q    +E  E E E E E E E   Q.   E E E Q    +E  +E  +E  +E  E E E E
||----------------|-------------------|---------------|------------------------|
||o---------------|-------------------|---------------|------------------------|
||-------------7--|-(7)-7-7-7---------|------------7--|-(7)-(7)-(7)-(7)--------|
||-------------7--|-(7)-7-7-7-8-7-5---|------------7--|-(7)-(7)-(7)-(7)--------|
||o-0----0-5h6-5--|-(5)-5-5-5-------8-|-0----0-5h6-5--|-(5)-(5)-(5)-(5)-0-0-0-0|
||--0----0-5h6----|-------------------|-0----0-5h6----|-----------------0-0-0-0|


  Q.   E E E Q    +E  E E E E E E E   Q.   E E E Q    +E  E E E E E E E
|---------------|-------------------|---------------|--------------------||
|---------------|-------------------|---------------|-------------------o||
|---------------|-------------------|---------------|--------------------||
|---------------|-------------------|---------------|--------------------||
|-1----3-1-0-1--|-(1)-1-1-1-1-3-1-0-|-3----5-3-0-3--|-(3)-3-3-3-6-5-3-0-o||
|-1----3-1-0-1--|-(1)-1-1-1-1-3-1-0-|-3----5-3-0-3--|-(3)-3-3-3----------||


 Pre-Verse
  Q=100
  Gtr I
  H    H      Q  Q   E E E E
|-----------|----------------|
|-----------|----------------|
|-----------|----------------|
|-----------|----------------|
|-6----5----|-3--5--10-9-3-5-|
|-6----5----|-3--5--10-9-3-5-|
|
| Gtr II
| TP   TP     TP
| H    H      W
|-----------|----------------|
|-6----6----|-6--------------|
|-----------|----------------|
|-----------|----------------|
|-----------|----------------|
|-----------|----------------|


   H        H           Q       Q   E E  E E
|--------------------|-----------------------|
|--------------------|-----------------------|
|--------------------|-----------------------|
|--------------------|-----------------------|
|--6--------5--------|--3-------5--10-9--3-5-|
|--6--------5--------|--3-------5--10-9--3-5-|
|
|  TP   TP  TP  TP      TP  TP  TP  TP   TP
|  Q.   E   Q  +Q       H  +E   E   E    E
|--------------------|-----------------------|
|-13---11--13-(13)---|-13-(13)-11--13---16---|
|--------------------|-----------------------|
|--------------------|-----------------------|
|--------------------|-----------------------|
|--------------------|-----------------------|


   H        H           Q     Q     E  E  E  E
|--------------------|-------------------------|
|--------------------|-------------------------|
|--------------------|-------------------------|
|--------------------|-------------------------|
|--6--------5--------|--3-----5----10--9--3--5-|
|--6--------5--------|--3-----5----10--9--3--5-|
|
|  TP    TP TP   TP     TP TP TP TP TP TP TP TP
|  Q.    E  Q   +Q      E  E  E  E  E  E  E  E
|--------------------|-------------------------|
|-13----11-13--(13)--|-13-11-13-16-13-11-13-16-|
|--------------------|-------------------------|
|--------------------|-------------------------|
|--------------------|-------------------------|
|--------------------|-------------------------|


   Verse
    Q=200
    Gtrs I, II
        PM--------|       PM--------|         PM--------|       PM--------|
                                        |-3-|
    E E E E E E E E   E E E E E E E E   E E E E E E E E E   E E E E E E E E
||------------------|-----------------|-------------------|-----------------|
||o-----------------|-----------------|-------------------|-----------------|
||------------------|-----------------|-------------------|-----------------|
||------------------|-----------------|-------------------|-----------------|
||o-----------------|-----------------|-5h6p5---5---------|-3h5-------------|
||--6p0-0-0-0-0-0-0-|-1p0-0-0-0-0-0-0-|-------6---6-5-3-5-|-----0-0-0-0-0-0-|


      PM--------|       PM--------|         PM--------|         PM--------|
                                      |-3-|               |-3-|
  E E E E E E E E   E E E E E E E E   E E E E E E E E E   E E E E E E E E E
|-----------------|-----------------|-------------------|--------------------||
|-----------------|-----------------|-------------------|-------------------o||
|-----------------|-----------------|-------------------|--------------------||
|-----------------|-----------------|-------------------|--------------------||
|-----------------|-----------------|-5h6p5---5-8-6-5---|-5h6p5---5---------o||
|-6p0-0-0-0-0-0-0-|-1p0-0-0-0-0-0-0-|-------6---------6-|-------6---6-5-3-5--||


   Chorus
    Gtrs I, II
                                                                        PM----|
    Q.   E E E Q    +E  E E E E E E E   Q.   E E E Q    +E  +E  +E  +E  E E E E
||----------------|-------------------|---------------|------------------------|
||o---------------|-------------------|---------------|------------------------|
||-------------7--|-(7)-7-7-7---------|------------7--|-(7)-(7)-(7)-(7)--------|
||-------------7--|-(7)-7-7-7-8-7-5---|------------7--|-(7)-(7)-(7)-(7)--------|
||o-0----0-5h6-5--|-(5)-5-5-5-------8-|-0----0-5h6-5--|-(5)-(5)-(5)-(5)-0-0-0-0|
||--0----0-5h6----|-------------------|-0----0-5h6----|-----------------0-0-0-0|


  Q.   E E E Q    +E  E E E E E E E   Q.   E E E Q    +E  E E E E E E E
|---------------|-------------------|---------------|--------------------||
|---------------|-------------------|---------------|-------------------o||
|---------------|-------------------|---------------|--------------------||
|---------------|-------------------|---------------|--------------------||
|-1----3-1-0-1--|-(1)-1-1-1-1-3-1-0-|-3----5-3-0-3--|-(3)-3-3-3-6-5-3-0-o||
|-1----3-1-0-1--|-(1)-1-1-1-1-3-1-0-|-3----5-3-0-3--|-(3)-3-3-3----------||


   Interlude
    Q=120
    PM--------------|           PM--------------------|           PM|
    S S S S S S S S S S S S S S S S   S S S S S S S S S S S S S S S S
||----------------------------------|-----------------------------------||
||o---------------------------------|----------------------------------o||
||----------------------------------|-----------------------------------||
||--------------------8-8-8-7-7-----|-------------------8-8-8-7-7-------||
||o-5-5-5-6-6-6-5-5-5-----------6-6-|-5-5-5-6-6-6-5-5-5-----------6-6--o||
||----------------------------------|-----------------------------------||


  Gtr I
  PM--------------|           PM--------------------|           PM|
  S S S S S S S S S S S S S S S S   S S S S S S S S S S S S S S S S
|---------------------------------|---------------------------------|
|---------------------------------|---------------------------------|
|---------------------------------|---------------------------------|
|-------------------8-8-8-7-7-----|-------------------8-8-8-7-7-----|
|-5-5-5-6-6-6-5-5-5-----------6-6-|-5-5-5-6-6-6-5-5-5-----------6-6-|
|---------------------------------|---------------------------------|
|
| Gtr II
| PM--------------|           PM--------------------|           PM|
| S S S S S S S S S S S S S S S S   S S S S S S S S S S S S S S S S
|---------------------------------|---------------------------------|
|---------------------------------|---------------------------------|
|-------------------7-7-7-6-6-----|-------------------7-7-7-6-6-----|
|-4-4-4-5-5-5-4-4-4-----------5-5-|-4-4-4-5-5-5-4-4-4-----------5-5-|
|---------------------------------|---------------------------------|
|---------------------------------|---------------------------------|


  Gtr I
  PM--------------|           PM--------------------|
  S S S S S S S S S S S S S S S S   S S S S S S S S S S S S S S E
|---------------------------------|----------------------------------|
|---------------------------------|-----------------------------3/---|
|---------------------------------|----------------------------------|
|-------------------8-8-8-7-7-----|-------------------8-8-8-7-7------|
|-5-5-5-6-6-6-5-5-5-----------6-6-|-5-5-5-6-6-6-5-5-5-----------6----|
|---------------------------------|----------------------------------|
|
| Gtr II
| PM--------------|           PM--------------------|           PM-|
| S S S S S S S S S S S S S S S S   S S S S S S S S S S S S S S S  S
|---------------------------------|----------------------------------|
|---------------------------------|----------------------------------|
|-------------------7-7-7-6-6-----|-------------------7-7-7-6-6------|
|-4-4-4-5-5-5-4-4-4-----------5-5-|-4-4-4-5-5-5-4-4-4-----------5--5-|
|---------------------------------|----------------------------------|
|---------------------------------|----------------------------------|


 Guitar Solo
  Gtr II
      PM
   E  S  E    +S    E.  E.  E           E
|--------------------------------------------------|
|--------------------------------------------------|
|--7----10----------6--10---9-----------6----------|
|--5-----8----------4---8---7-----------4----------|
|--5-----8----(8)\--4---8---7-----------4----------|
|--5--0--8----(8)\--4---8---7-----------4----------|
|
| Gtr I
|  E.    S  S  S    Q.      T  T  T  T  T  T  T  T
|--------------------------------------------12-13-|
|-----------------------------------12-13-15-------|
|-19----14p12h14---21------12-13-15----------------|
|--------------------------------------------------|
|--------------------------------------------------|
|--------------------------------------------------|


      PM
   E  S  E    +S    E.  E.  E           E
|---------------------------------------------------|
|---------------------------------------------------|
|--7----10----------6--10---9-----------6-----------|
|--5-----8----------4---8---7-----------4-----------|
|--5-----8----(8)\--4---8---7-----------4-----------|
|--5--0--8----(8)\--4---8---7-----------4-----------|
|
|  E.    S  S  S    Q.      T  T  T  T  T  T  T  T
|-15----13-12-13---12-------------------------------|
|--------------------------------------------15-13--|
|---------------------------------------------------|
|-----------------------------------12-14-15--------|
|--------------------------12-14-15-----------------|
|---------------------------------------------------|


               PM
   E           S     E          +S       E.                 E.                 E   E
|---------------------------------------------------------------------------------
|---------------------------------------------------------------------------------
|--7----------------10-------------------6-----------------10------------------9--
|--5-----------------8-------------------4------------------8------------------7--
|--5-----------------8----------(8)\-----4------------------8------------------7--
|--5-----------0-----8----------(8)\-----4------------------8------------------7--

--------------------|
--------------------|
---------6----------|
---------4----------|
---------4----------|
---------4----------|
|
|  T  T  T  T  T  T  T  T  T  T  T    T  T   T  T  T  T  T  T   T  T  T  T  T  T  T  T  T  T  T
|----------12-15-13-12-17-15-13-15---13-12--13-12----12---------------------------
|-12-13-15----------------------------------------15----15-13--15-13-12-13-12----
|-----------------------------------------------------------------------------14--
|---------------------------------------------------------------------------------
|---------------------------------------------------------------------------------
|---------------------------------------------------------------------------------

--------------------|
12------------------|
--14-12-14-12----12-|
--------------15----|
--------------------|
--------------------|


               PM
   E           S     E          +S       E.                 E.            E        E
|--------------------------------------------------------------------------------------------|
|--------------------------------------------------------------------------------------------|
|--7----------------10-------------------6-----------------10-------------9--------6---------|
|--5-----------------8-------------------4------------------8-------------7--------4---------|
|--5-----------------8----------(8)\-----4------------------8-------------7--------4---------|
|--5-----------0-----8----------(8)\-----4------------------8-------------7--------4---------|
|
|  T  T  T  T  T  T  T  T  T  T  T    T  T   T  T  T  T  T  T  T  T T T T T T T T  T  T  T T
|--------------------------------------------------------------------------------------------|
|--------------------------------------------------------------------------------------------|
|--------------------------------------------------------------------------------------------|
|-15-14-15-14-12-14-12----12-----------------------------------------------------------------|
|----------------------15----15-14---15-14--12-14-12-10-12-10--8-10-8-7-8-7-5-7-5------------|
|---------------------------------------------------------------------------------10-12-10-9-|


  Gtr I
     PM                            PM
  E  S   E +S    E.  E. E E    E   S   E  +S   E.  E.  E       E
|---------------------------|--------------------------------------------|
|---------------------------|--------------------------------------------|
|-7-----10-------6--10--9-6-|--7------10-------6--10---9-------6---------|
|-5------8-------4---8--7-4-|--5-------8-------4---8---7-------4---------|
|-5------8-(8)\--4---8--7-4-|--5-------8--(8)\-4---8---7-------4---------|
|-5--0---8-(8)\--4---8--7-4-|--5---0---8--(8)\-4---8---7-------4---------|
|
| Gtr II
|                                                      T          T  T
| E +S   E +S    E.  E. E E    E  +S   E  +S   Q.      T T T T T  T  T T
|---------------------------|-------------------------10-8p7h8p7-11-10-8-|
|---------------------------|--------------------------------------------|
|-7-(7)--5-(5)--10---9--7-5-|-12-(12)-10-(10)--9-------------------------|
|---------------------------|--------------------------------------------|
|-5-(5)--3-(3)---8---7--5-3-|-10-(10)--8--(8)--7-------------------------|
|---------------------------|--------------------------------------------|


           PM
  E        S    E       +S     E.            E.          E       E
|------------------------------------------------------------------------|
|------------------------------------------------------------------------|
|-7------------10--------------6------------10-----------9-------6-------|
|-5-------------8--------------4-------------8-----------7-------4-------|
|-5-------------8-------(8)\---4-------------8-----------7-------4-------|
|-5--------0----8-------(8)\---4-------------8-----------7-------4-------|
|
|        T
| T T T  T T T  T T T T  T   T T  T T T T T  T T T T T T T T T T T T T T
|-7h8p7-10-8p7h=8p7---8p=7h==8p7----------8p=7h8p7-----------------------|
|-------------------8-------------6p5h6p5----------6p5h6p5-7p5h7p5-------|
|------------------------------------------------------------------8-7-5-|
|------------------------------------------------------------------------|
|------------------------------------------------------------------------|
|------------------------------------------------------------------------|


          PM
  E       S    E      +S   E.    E.   E E
|-----------------------------------------|
|-----------------------------------------|
|-7-----------10-----------6----10----9-6-|
|-5------------8-----------4-----8----7-4-|
|-5------------8------(8)\-4-----8----7-4-|
|-5-------0----8------(8)\-4-----8----7-4-|
|
| T T T T T T  T T  E      E  E     E E E
|-----------7--8-7------------------------|
|-----------------------------------------|
|-----5-7-5--------10---------------------|
|-7p5----------------------9--8-----------|
|-----------------------------------8-7---|
|---------------------------------------9-|


   Chorus
    Q=200
    Gtrs I, II
                                                                        PM----|
    Q.   E E E Q    +E  E E E E E E E   Q.   E E E Q    +E  +E  +E  +E  E E E E
||----------------|-------------------|---------------|------------------------|
||o---------------|-------------------|---------------|------------------------|
||-------------7--|-(7)-7-7-7---------|------------7--|-(7)-(7)-(7)-(7)--------|
||-------------7--|-(7)-7-7-7-8-7-5---|------------7--|-(7)-(7)-(7)-(7)--------|
||o-0----0-5h6-5--|-(5)-5-5-5-------8-|-0----0-5h6-5--|-(5)-(5)-(5)-(5)-0-0-0-0|
||--0----0-5h6----|-------------------|-0----0-5h6----|-----------------0-0-0-0|


  Q.   E E E Q    +E  E E E E E E E   Q.   E E E Q    +E  E E E E E E E  4x
|---------------|-------------------|---------------|--------------------||
|---------------|-------------------|---------------|-------------------o||
|---------------|-------------------|---------------|--------------------||
|---------------|-------------------|---------------|--------------------||
|-1----3-1-0-1--|-(1)-1-1-1-1-3-1-0-|-3----5-3-0-3--|-(3)-3-3-3-6-5-3-0-o||
|-1----3-1-0-1--|-(1)-1-1-1-1-3-1-0-|-3----5-3-0-3--|-(3)-3-3-3----------||


   Interlude/Outro
    Q=120
    Gtr I
    PM--------------|           PM--------------------|           PM|
    S S S S S S S S S S S S S S S S   S S S S S S S S S S S S S S S S   4x
||----------------------------------|-----------------------------------||
||o---------------------------------|----------------------------------o||
||----------------------------------|-----------------------------------||
||--------------------8-8-8-7-7-----|-------------------8-8-8-7-7-------||
||o-5-5-5-6-6-6-5-5-5-----------6-6-|-5-5-5-6-6-6-5-5-5-----------6-6--o||
||----------------------------------|-----------------------------------||
|
|   Gtr II
|   PM--------------|           PM--------------------|           PM|
|   S S S S S S S S S S S S S S S S   S S S S S S S S S S S S S S S S   4x
||----------------------------------|-----------------------------------||
||o---------------------------------|----------------------------------o||
||--------------------7-7-7-6-6-----|-------------------7-7-7-6-6-------||
||--4-4-4-5-5-5-4-4-4-----------5-5-|-4-4-4-5-5-5-4-4-4-----------5-5---||
||o---------------------------------|----------------------------------o||
||----------------------------------|-----------------------------------||


  Gtrs I, II
  E. E. E.  E S E E   E. E. E.  E S E E
|-------------------|-------------------|
|-------------------|-------------------|
|-------------------|-------------------|
|-------------------|-------------------|
|-0--1--0--/6-6-5-1-|-0--1--0--/8-8-7-1-|
|-0--1--0--/6-6-5-1-|-0--1--0--/8-8-7-1-|


  E. E. E.  E S E E   E. E. E.  E S E E
|-------------------|--------------------|
|-------------------|--------------------|
|-------------------|--------------------|
|-------------------|--------------------|
|-0--1--0--/6-6-5-1-|-0--1--0--/8-8-7-1--|
|-0--1--0--/6-6-5-1-|-0--1--0--/8-8-7-1--|


  E. E. E.  E S E E   E. E. E.  E S E E
|-------------------|-------------------|
|-------------------|-------------------|
|-------------------|-------------------|
|-------------------|-------------------|
|-0--1--0--/6-6-5-1-|-0--1--0--/8-8-7-1-|
|-0--1--0--/6-6-5-1-|-0--1--0--/8-8-7-1-|


  E. E. E.  E S E E   E. E. E.  E S E E
|-------------------|--------------------|
|-------------------|--------------------|
|-------------------|--------------------|
|-------------------|--------------------|
|-0--1--0--/6-6-5-1-|-0--1--0--/8-8-7-1--|
|-0--1--0--/6-6-5-1-|-0--1--0--/8-8-7-1--|


  E. E. E.  E S E E   E. E. E.  E S E E
|-------------------|-------------------|
|-------------------|-------------------|
|-------------------|-------------------|
|-------------------|-------------------|
|-0--1--0--/6-6-5-1-|-0--1--0--/8-8-7-1-|
|-0--1--0--/6-6-5-1-|-0--1--0--/8-8-7-1-|


                                PM------|
  E. E. E.  E S E E   E. E. E.  S S S S S E
|-------------------|-----------------------|
|-------------------|-----------------------|
|-------------------|-----------------------|
|-------------------|-----------------------|
|-0--1--0--/6-6-5-1-|-0--1--0-------------1-|
|-0--1--0--/6-6-5-1-|-0--1--0--/8-8-8-7-7-1-|


  E. E. E.  E S E E   E. E. E.  E S E E
|-------------------|-------------------|
|-------------------|-------------------|
|-------------------|-------------------|
|-------------------|-------------------|
|-0--1--0--/6-6-5-1-|-0--1--0--/8-8-7-1-|
|-0--1--0--/6-6-5-1-|-0--1--0--/8-8-7-1-|


  E. E. E.  E S E E   E. E. E.  E S E E
|-------------------|--------------------*|
|-------------------|--------------------*|
|-------------------|--------------------*|
|-------------------|--------------------*|
|-0--1--0--/6-6-5-1-|-0--1--0--/8-8-7-1--*|
|-0--1--0--/6-6-5-1-|-0--1--0--/8-8-7-1--*|


Duration Legend
---------------
W - whole; H - half; Q - quarter; E - 8th; S - 16th; T - 32nd; X - 64th; a - acciaccatura
+ - note tied to previous; . - note dotted; .. - note double dotted
Uncapitalized letters represent notes that are staccato (1/2 duration)
Irregular groupings are notated above the duration line
Duration letters will always appear directly above the note/fret number it represents the
duration for.  Duration letters with no fret number below them represent rests.  Multi-
bar rests are notated in the form Wxn, where n is the number of bars to rest for.  Low
melody durations appear below the staff

Tablature Legend
----------------
 h   - hammer-on
 p   - pull-off
 b   - bend
 pb  - pre-bend
 r   - bend release (if no number after the r, then release immediately)
 /\  - slide into or out of (from/to "nowhere")
 s   - legato slide
 S   - shift slide
  - natural harmonic
[n]  - artificial harmonic
n(n) - tapped harmonic
 ~   - vibrato
 tr  - trill
 T   - tap
 TP  - trem. picking
 PM  - palm muting
\n/  - tremolo bar dip; n = amount to dip
 \n  - tremolo bar down
 n/  - tremolo bar up
/n\  - tremolo bar inverted dip
 =   - hold bend; also acts as connecting device for hammers/pulls
 <>  - volume swell (louder/softer)
 x   - on rhythm slash represents muted slash
 o   - on rhythm slash represents single note slash

Misc Legend
-----------
 |  - bar
||  - double bar
||o - repeat start
o|| - repeat end
*|  - double bar (ending)
 :  - bar (freetime)
 $  - Segno
 &  - Coda
Tempo markers -  = BPM(8/16=s8/s16), where s8 = swing 8ths, s16 = swing 16ths


***************************************************************************************
* Generated using Power Tab Editor by Brad Larsen - http://powertab.guitarnetwork.org *
***************************************************************************************

            
            
Suggest correction
Creating personal tab
Creating personal tab
You can edit any tab online and save it as your Personal.

You can edit, replace or remove any tab part or add personal notes – all changes will be seen only by you.

Personal tabs can be accessed anytime from any device, even offline.
Learn more »
comments
print report bad tab
9 comments total. Showing first comments.
+3 reply
mblkh2o 123 Sep 25, 2008 09:15 AM

Perfect!

-1 reply
riffmerchant 81 Mar 05, 2009 10:34 AM

intro is wrong, not 6 5 its 6 5 check out my tab i think its v2
6 5 8 7

+1 reply
riffmerchant 81 Mar 05, 2009 10:35 AM

ok that didnt work :/

this:

--8--7--
--6--5--

guest
You may want to rate the tab now too:
select rating
Wanna post a correction for this tab? Suggest correction