Oops, an error
Loading. Please wait.

Surfacing bass

version 5
3,144 views 3 this week
no commentswrite comment
1 2 3 4 5
x 4
add to favorites
×
Save as Personal and add changes to this tab that will be seen only by you. Learn more ›
×
You can save this tab as Personal to edit and correct it or add notes. All changes will be seen only by you. Learn more »
launch autoscroll
font size
0
reset
guitar tuner
backing track
0:00
0:00
edit
Autoscroll
slow
fast
+/-
esc
set tempo
stop
-----------------------------------------------------------------------------
                             Surfacing - Slipknot
-----------------------------------------------------------------------------
Tabbed by: Andu Needle
E-mail: sulfur_in_my_lungs@yahoo.com

Intro:

E |----------------------------------------|
B |----------------------------------------|
F#|----------------------------------------|
B |-0-1p0----------------------------------|(x16)

E |----------------------------------------|
B |----------------------------------------|
F#|----------------------------------------|
B |-0010-01--------------------------------|(x16)

Pre verse:

E |----------------------------------------|
B |----------------------------------------|
F#|-5565-56--------------------------------|
B |----------------------------------------|(x8)

Verse:

E |----------------------------------------|
B |----------------------------------------|
F#|------5h6-------------------------------|
B |-0010-----------------------------------|(x8)

Chorus:

E |----------------------------------------|
B |----------------------------------------|
F#|----------------------------------------|
B |-0010-01--------------------------------|(x8)

Pre verse again!
Verse again!
Chorus again!

After the second chorus it`s the main riff:

E |----------------------------------------|
B |----------------------------------------|
F#|----------------------------------------|
B |-0010-01--------------------------------|(x8)

Bridge:

E |----------------------------------------|
B |----------------------------------------|
F#|-----76---------43----------------------|
B |-876----876--43----4321-----------------|(x10)

Bridge 2:

E |----------------------------------------|
B |----------------------------------------|
F#|-------21-------------------------------|
B |-32-32----32----------------------------|(x4)

E |----------------------------------------|
B |----32----------------------------------|
F#|-------21-------------------------------|
B |-32-------32----------------------------|(x4)

Pre verse again!

The break down part:

At this one, the rhythm is very tricky.

E |----------------------------------------|
B |----------------------------------------|
F#|------565-------------------------------|
B |-0010-----606-335-----------------------|(x3)

E |----------------------------------------|
B |----------------------------------------|
F#|------565/12(x6)------------------------|
B |-0010-----------------------------------|

Last chorus:

E |----------------------------------------|
B |----------------------------------------|
F#|----------------------------------------|
B |-0010-01--------------------------------|(x8)

You play the chorus twice. That means 16 measures of that riff.

Ending:

E |----------------------------------------|
B |----------------------------------------|
F#|----------------------------------------|
B |-0010-01--------------------------------|

You play this riff til the end.

Note: In the riff "-0010-01-", that`s not a 10. It is 1 and 0.

            
            
Suggest correction
Creating personal tab
Creating personal tab
You can edit any tab online and save it as your Personal.

You can edit, replace or remove any tab part or add personal notes – all changes will be seen only by you.

Personal tabs can be accessed anytime from any device, even offline.
Learn more »
comments
print report bad tab
guest
You may want to rate the tab now too:
select rating
Wanna post a correction for this tab? Suggest correction