Oops, an error
Loading. Please wait.

Surfacing bass

version 4
1,898 views 1 this week
2 commentsread comments
1 2 3 4 5
2 more votes to show rating
add to favorites
×
Save as Personal and add changes to this tab that will be seen only by you. Learn more ›
×
You can save this tab as Personal to edit and correct it or add notes. All changes will be seen only by you. Learn more »
launch autoscroll
font size
0
reset
guitar tuner
backing track
0:00
0:00
edit
Autoscroll
slow
fast
+/-
esc
set tempo
stop
D|-----------------------------------------|
A|-----------------------------------------|
E|-----------------------------------------|
A|5-4-0-0-3-2-0-0-5-4-0-0-3-2-0-0--0--0--0-|

D|----------------------------------------------------------------|
A|2-2-2-2-2-2-2-2-----------------2-2-2-2-2-2-2-2-----------------|
E|----------------3-3-3-3-3-3-3-3-----------------3-3-3-3-3-3-3-3-|
A|----------------------------------------------------------------|

D|----------------------------------------------------------------|
A|----------------------------------------------------------------|
E|----------------------------------------------------------------|
A|1-1-1-1-1-1-1-1-3-3-3-3-3-3-3-3-2-2-2-2-2-2-2-2-4-4-4-4-4-4-4-4-|

D|----------------------------------------------------------------|
A|2-2-2-2-2-2-2-2-----------------2-2-2-2-2-2-2-2-----------------|
E|----------------3-3-3-3-3-3-3-3-----------------3-3-3-3-3-3-3-3-|
A|----------------------------------------------------------------|

D|--------------------|
A|--------------------|
E|--------------------|
A|1--1--1--1 / 12 \ 1-|

D|------------------------------|
A|------------------------------|
E|------------------------------|
A|0-3-2-0-2-0---0-3-2-0-5-------|(bend)

D|------------------------------------------|
A|------------------------------------------|
E|------------------------------------------|
A|0-2-0-2---4---0-2-0-2---4---0-2-0-5-------|(bend)

D|----------------------|
A|2~~3~~------2~~3~~----|
E|-------3~2--------3~2-|
A|----------------------|

D|--------------------------------|
A|2~~3~~------2--2--2--2----------|
E|-------3~2--------------3~2(/12-| once at the end
A|--------------------------------|

D|--------------------------------|
A|--------------------------------|
E|--------------------------------|
A|0-2-0-1-0-1-0---0-2-1-0-5-------|(bend)

D|--------------------------------------------------|
A|--------------------------------------------------|
E|--------------------------------------------------|
A|1-1-1---1-1---1-1---1-1---1-1-1-1-1-1---1-1---1-1-|

D|--------------------------------|
A|--------------------------------|
E|--------------------------------|
A|0-2-0-1-0-1-0---0-2-1-0-5-------|(bend)

D|-----------------|
A|2~~3~~----2~~3~~-|
E|------3~2--------|
A|-----------------|

D|----------------|
A|----------------|
E|----------------|
A|8-8-0-9-0-0-5-5-|

D|----------------|
A|----------------|
E|----------------|
A|1-1-1-2-1-1-3-4-|

D|-------|
A|-------|
E|-------|
A|1~~~~~~

D|----------------|
A|----------------|
E|----------------|
A|8-8-0-9-0-0-5-5-|

D|-----------------------------------------|
A|-----------------------------------------|
E|-----------------------------------------|
A|5-4-0-0-3-2-0-0-5-4-0-0-3-2-0-0--0--0--0-|

By ToolFtw Email me at tompson1337@yahoo.com

            
            
Suggest correction
Creating personal tab
Creating personal tab
You can edit any tab online and save it as your Personal.

You can edit, replace or remove any tab part or add personal notes – all changes will be seen only by you.

Personal tabs can be accessed anytime from any device, even offline.
Learn more »
Give kudos to tab author, rate the tab!
1 2 3 4 5
comments
print report bad tab
2 comments total.
+1 reply
crazycram42094 72 Nov 24, 2008 01:24 PM

isnt this people = shit?

0 reply
TrU MaGgOt 666 50 Apr 26, 2009 03:56 PM

wrong ****in song dumbass.... and u tabbed this song (people = shit) wrong too. way **** everything up. prick.

guest
You may want to rate the tab now too:
select rating
Wanna post a correction for this tab? Suggest correction