Oops, an error
Loading. Please wait.

Surfacing tab

version 2
99,698 views 1 this week
54 commentsread comments
1 2 3 4 5
x 37
add to favorites
×
Save as Personal and add changes to this tab that will be seen only by you. Learn more ›
×
You can save this tab as Personal to edit and correct it or add notes. All changes will be seen only by you. Learn more »
launch autoscroll
font size
0
reset
how to read this tab
guitar tuner
backing track
0:00
0:00
edit
Autoscroll
slow
fast
+/-
esc
set tempo
stop
Author
Tabbers playing skills
advanced ++
Surfacing-Slipknot
Slipknot

Drop B
B F# B E G# C#

Riff A x4 (gtr w/ pitch shifter up 2 oct)

  +
e---------------------------------------------------------|
b---------------------------------------------------------|
g-17b------0h3p0h3p03------------17b-----0h3p0h3p03-------|
d---------------------------------------------------------|
a---------------------------------------------------------|
d---------------------------------------------------------|

gtr 1 play Riff A x12

gtr 2.

e-----------------------------------------------------------------|
b-----------------------------------------------------------------|
g-----------------------------------------------------------------|
d-----------------------------------------------------------------|
a-0-0-1-0---0-1---0-0-1-0---0-1---0-0-1-0---0-1---0-0-1-0---0-1---|
d-0-0-1-0---0-1---0-0-1-0---0-1---0-0-1-0---0-1---0-0-1-0---0-1---|

both gtrs. x2

e-----------------------------------------------------------------|
b-----------------------------------------------------------------|
g-----------------------------------------------------------------|
d-----------------------------------------------------------------|
a-0-0-1-0---0-1---0-0-1-0---0-1---0-0-1-0---0-1---0-0-1-0---0-1---|
d-0-0-1-0---0-1---0-0-1-0---0-1---0-0-1-0---0-1---0-0-1-0---0-1---|

Fig 1.

e-----------------------------------------------------------------|
b-----------------------------------------------------------------|
g-----------------------------------------------------------------|
d-----------------------------------------------------------------|
a-----1-0-----1-------1-0-----1-------1-0-----1-------1-0-----1---|
d-0-0-1-0---0-1---0-0-1-0---0-1---0-0-1-0---0-1---0-0-1-0---0-1---|

Riff B

e---------------------------------------------------------|
b---------------------------------------------------------|
g-17b-----------------------------------------------------|
d---------------------------------------------------------|
a---------------------------------------------------------|
d---------------------------------------------------------|

gtr 2

e---------------------------------------------------------|
b---------------------------------------------------------|
g-7-7-8-7--7-8---(8)b-------------------------------------|
d-x-x-x-x--x-x----x---------------------------------------|
a-5-5-6-5--5-6---(6)b-------------------------------------|
d---------------------------------------------------------|

[Interlude]

e---------------------------------------------------------|
b---------------------------------------------------------|
g---------------------------------------------------------|
d---------------------------------------------------------|
a-------7-6-----------4-3---------------------------------|
d-8-7-6-----8-7-6-4-3-----4-3-2-1-------------------------|

e---------------------------------------------------------|
b---------------------------------------------------------|
g---------------------------------------------------------|
d-------9-8-----------6-5---------------------------------|
a-8-7-6-7-6-8-7-6-4-3-4-3-4-3-2-1-------------------------|
d-8-7-6-----8-7-6-4-3-----4-3-2-1-------------------------|

[Bridge]

e---------------------------------------------------------|
b---------------------------------------------------------|
g---------------------------------------------------------|
d--------10---9-------------------------------------------|
a-3---2---8---7---9---8---3---2---------------------------|
d-3---2-----------9---8---3---2---------------------------|

that’s all, just piece it together


trevor jones
timmy91199@yahoo.ca



************************************

| x  Dead note
| h  Hammer-on
| p  Pull-off
| b  Bend

************************************

            
            
Suggest correction
Creating personal tab
Creating personal tab
You can edit any tab online and save it as your Personal.

You can edit, replace or remove any tab part or add personal notes – all changes will be seen only by you.

Personal tabs can be accessed anytime from any device, even offline.
Learn more »
comments
print report bad tab
54 comments total. Showing first comments. show 2 bad comments
+5 reply
tza 3,422 Mar 13, 2002 07:00 PM

jesus christ you fuckin retard get a goddamn life

guest
You may want to rate the tab now too:
select rating
Wanna post a correction for this tab? Suggest correction