Oops, an error
Loading. Please wait.

Surfacing tab

version 6
2,676 views 3 this week
no commentswrite comment
1 2 3 4 5
1 last vote to show rating
add to favorites
×
Save as Personal and add changes to this tab that will be seen only by you. Learn more ›
×
You can save this tab as Personal to edit and correct it or add notes. All changes will be seen only by you. Learn more »
launch autoscroll
font size
0
reset
how to read this tab
guitar tuner
backing track
0:00
0:00
edit
Autoscroll
slow
fast
+/-
esc
set tempo
stop
Author
Song      : Surfacing
Band      : Slipknot
Tabbed by : Nicholas Elliott
Email     : the.soup.07@gmail.com

Tuning: (low to high) B F# B E G# C# 

Intro (0:01)

Guitar 1 (with Wah-Wah pedal):

C#|-20/22-------------------------|-20/22-------------------------|
G#|-------------------------------|-------------------------------|
E |-------20p17h20p17h20p17h20p17-|-------20p17h20p17h20p17h20p17-|
B |-------------------------------|-------------------------------|
F#|-------------------------------|-------------------------------|
B |-------------------------------|-------------------------------| x4
          T     T     T     T             T     T     T     T     

Guitar 1 repeats the above, while Guitar 2 plays this: 

C#|-----------------|-----------------|-----------------|-----------------|
G#|-----------------|-----------------|-----------------|-----------------|
E |-----------------|-----------------|-----------------|-----------------|
B |-----------------|-----------------|-----------------|-----------------|
F#|-----------------|-----------------|-----------------|-----------------|
B |-0-0-1-0---0-1---|-0-0-1-0---0-1---|-0-0-1-0---0-1---|-0-0-1-0---0-1---| x8

Band Enters (0:35)

Guitars 1 and 2 (Composite arrangement):

Play 2x:
C#|-----------------|-----------------|-----------------|-----------------|
G#|-----------------|-----------------|-----------------|-----------------|
E |-----------------|-----------------|-----------------|-----------------|
B |-----------------|-----------------|-----------------|-----------------|
F#|-0-0-1-0---0-1---|-0-0-1-0---0-1---|-0-0-1-0---0-1---|-0-0-1-0---0-1---|
B |-0-0-1-0---0-1---|-0-0-1-0---0-1---|-0-0-1-0---0-1---|-0-0-1-0---0-1---| 

Play 2x:
C#|-----------------|-----------------|-----------------|-----------------|
G#|-----------------|-----------------|-----------------|-----------------|
E |-----------------|-----------------|-----------------|-----------------|
B |-----------------|-----------------|-----------------|-----------------|
F#|-0-0-1-0---0-1---|-0-0-1-0---0-1---|-0-0-1-0---0-1---|-0-0-1-0---0-1---|
B |-0-0-1-0---0-1---|-0-0-1-0---0-1---|-0-0-1-0---0-1---|-0-0-1-0---0-1---| 
    . .       .       . .       .       . .       .       . .       .      

Verse 1 (0:53)

Guitars 1 and 2:        

Play 4x:
C#|-----------------|-----------------|-----------------|-----------------|
G#|-----------------|-----------------|-----------------|-----------------|
E |-7---------------|-8--------b9r8---|-7---------------|-8--------b9r8---|
B |-----------------|-----------------|-----------------|-----------------|
F#|-5---------------|-6--------b7r6---|-5---------------|-6--------b7r6---|
B |-----------------|-----------------|-----------------|-----------------|
  |                 |                 |                 |                 |
C#|-20/22-----------|-20/22-----------|-20/22-----------|-20/22-----------|
G#|-----------------|-----------------|-----------------|-----------------|
E |-----------------|-----------------|-----------------|-----------------|
B |-----------------|-----------------|-----------------|-----------------|
F#|-----------------|-----------------|-----------------|-----------------|
B |-----------------|-----------------|-----------------|-----------------| 

Chorus (1:11)

Guitars 1 and 2 (Composite arrangement):

Play 4x:
C#|-----------------|-----------------|-----------------|-----------------|
G#|-----------------|-----------------|-----------------|-----------------|
E |-----------------|-----------------|-----------------|-----------------|
B |-----------------|-----------------|-----------------|-----------------|
F#|-0-0-1-0---0-1---|-0-0-1-0---0-1---|-0-0-1-0---0-1---|-0-0-1-0---0-1---|
B |-0-0-1-0---0-1---|-0-0-1-0---0-1---|-0-0-1-0---0-1---|-0-0-1-0---0-1---|
    . .       .       . .       .       . .       .       . .       .    

Verse 2 (1:20)

Guitars 1 and 2:

Play 2x:
C#|-----------------|-----------------|-----------------|-----------------|
G#|-----------------|-----------------|-----------------|-----------------|
E |-7---------------|-8--------b9r8---|-7---------------|-8--------b9r8---|
B |-----------------|-----------------|-----------------|-----------------|
F#|-5---------------|-6--------b7r6---|-5---------------|-6--------b7r6---|
B |-----------------|-----------------|-----------------|-----------------|
  |                 |                 |                 |                 |
C#|-20/22-----------|-20/22-----------|-20/22-----------|-20/22-----------|
G#|-----------------|-----------------|-----------------|-----------------|
E |-----------------|-----------------|-----------------|-----------------|
B |-----------------|-----------------|-----------------|-----------------|
F#|-----------------|-----------------|-----------------|-----------------|
B |-----------------|-----------------|-----------------|-----------------| 

Play 2x:
C#|-----------------|-----------------|-----------------|-----------------|
G#|-----------------|-----------------|-----------------|-----------------|
E |-7---------------|-8--------b9r8---|-7---------------|-8--------b9r8---|
B |-----------------|-----------------|-----------------|-----------------|
F#|-5---------------|-6--------b7r6---|-5---------------|-6--------b7r6---|
B |-----------------|-----------------|-----------------|-----------------|
  |                 |                 |                 |                 |
C#|-22/20-----------|-22/20-----------|-22/20-----------|-22/20-----------|
G#|-----------------|-----------------|-----------------|-----------------|
E |-----------------|-----------------|-----------------|-----------------|
B |-----------------|-----------------|-----------------|-----------------|
F#|-----------------|-----------------|-----------------|-----------------|
B |-----------------|-----------------|-----------------|-----------------|

Chorus (1:38)

Guitars 1 and 2 (Composite arrangement):

Play 4x:
C#|-----------------|-----------------|-----------------|-----------------|
G#|-----------------|-----------------|-----------------|-----------------|
E |-----------------|-----------------|-----------------|-----------------|
B |-----------------|-----------------|-----------------|-----------------|
F#|-0-0-1-0---0-1---|-0-0-1-0---0-1---|-0-0-1-0---0-1---|-0-0-1-0---0-1---|
B |-0-0-1-0---0-1---|-0-0-1-0---0-1---|-0-0-1-0---0-1---|-0-0-1-0---0-1---|
    . .       .       . .       .       . .       .       . .       .      

Interlude (1:56)

Guitars 1 and 2:

C#|-----------------|-----------------|-----------------|-----------------|
G#|-----------------|-----------------|-----------------|-----------------|
E |-----------------|-----------------|-----------------|-----------------|
B |-----------------|-----------------|-----------------|-----------------|
F#|-----------------|-----------------|-------6-5-------|-----3-2---------|
B |-----------------|-----------------|-8-7-6-----6-5-4-|-3-2-----3-2-1-0-|
  |                 |                 |                 |                 |
C#|-----------------|-----------------|-----------------|-----------------|
G#|-----------------|-----------------|-----------------|-9-9-9-9-9-9-9-9-|
E |-----------------|-----------------|-----------------|-7-7-7-7-7-7-7-7-|
B |-----------------|-----------------|-----------------|-6-6-6-6-6-6-6-6-|
F#|-----------------|-----------------|-----------------|-----------------|
B |-----------------|-----------------|-----------------|-----------------|

Guitars 1 and 2 (Composite arrangement):

Play 2x:
C#|-----------------|-----------------|-----------------|-----------------|
G#|-----------------|-----------------|-----------------|-----------------|
E |-----------------|-----------------|-----------------|-----------------|
B |-------8-7-------|-----5-4---------|-------8-7-------|-----5-4---------|
F#|-8-7-6-6-5-6-5-4-|-3-2-3-2-3-2-1-0-|-8-7-6-6-5-6-5-4-|-3-2-3-2-3-2-1-0-|
B |-8-7-6-----6-5-4-|-3-2-----3-2-1-0-|-8-7-6-----6-5-4-|-3-2-----3-2-1-0-| 

Play 2x:
C#|-----------------|-----------------|-----------------|-----------------|
G#|-----------------|-----------------|-----------------|-----------------|
E |-----------------|-----------------|-----------------|-----------------|
B |-------8-7-------|-----5-4---------|-------8-7-------|-----5-4---------|
F#|-8-7-6-6-5-6-5-4-|-3-2-3-2-3-2-1-0-|-8-7-6-6-5-6-5-4-|-3-2-3-2-3-2-1-0-|
B |-8-7-6-----6-5-4-|-3-2-----3-2-1-0-|-8-7-6-----6-5-4-|-3-2-----3-2-1-0-|
    . . . . . . . .   . . . . . . . .   . . . . . . . .   . . . . . . . .

Bridge (2:19)

Play 4x:
C#|-----------------|-----------------|-----------------|-----------------|
G#|-----------------|-----------------|-----------------|-----------------|
E |-----------------|-----------------|-----------------|-----------------|
B |---------10--9---|-----------------|---------10--9---|-----------------|
F#|-3---2---8---7---|-9---8---3---2---|-3---2---8---7---|-9---8---3---2---|
B |-3---2-----------|-9---8---3---2---|-3---2-----------|-9---8---3---2---| 

Guitars 1 and 2:

Play 2x:
C#|-20/22-----------|-20/22-----------|-20/22-----------|-20/22-----------|
G#|-----------------|-----------------|-----------------|-----------------|
E |-----------------|-----------------|-----------------|-----------------|
B |-----------------|-----------------|-----------------|-----------------|
F#|-----------------|-----------------|-----------------|-----------------|
B |-----------------|-----------------|-----------------|-----------------|
  |                 |                 |                 |                 |
C#|-----------------|-----------------|-----------------|-----------------|
G#|-----------------|-----------------|-----------------|-----------------|
E |-----------------|-----------------|-----------------|-----------------|
B |-----------------|-----------------|-----------------|-----------------|
F#|-----------------|-----------------|-----------------|-----------------|
B |-0-0-1-0---0-1---|-0-0-1-0---0-1---|-0-0-1-0---0-1---|-0-0-1-0---0-1---| 

Play 2x:
C#|-20/22-----------|-20/22-----------|-20/22-----------|-20/22-----------|
G#|-----------------|-----------------|-----------------|-----------------|
E |-----------------|-----------------|-----------------|-----------------|
B |-----------------|-----------------|-----------------|-----------------|
F#|-----------------|-----------------|-----------------|-----------------|
B |-----------------|-----------------|-----------------|-----------------|
  |                 |                 |                 |                 |
C#|-----------------|-----------------|-----------------|-----------------|
G#|-----------------|-----------------|-----------------|-----------------|
E |-----------------|-----------------|-----------------|-----------------|
B |-----------------|-----------------|-----------------|-----------------|
F#|-----------------|-----------------|-----------------|-----------------|
B |-0-0-1-0---0-1---|-0-0-1-0---0-1b2-|-0-0-1-0---0-1---|-0-0-1-0---0-1b2-| x2

Chorus (2:56)

Guitars 1 and 2 (Composite arrangement):

Play 4x:
C#|-----------------|-----------------|-----------------|-----------------|
G#|-----------------|-----------------|-----------------|-----------------|
E |-----------------|-----------------|-----------------|-----------------|
B |-----------------|-----------------|-----------------|-----------------|
F#|-0-0-1-0---0-1---|-0-0-1-0---0-1---|-0-0-1-0---0-1---|-0-0-1-0---0-1---|
B |-0-0-1-0---0-1---|-0-0-1-0---0-1---|-0-0-1-0---0-1---|-0-0-1-0---0-1---| 
    . .       .       . .       .       . .       .       . .       .      

Outro (3:16)

Play 4x:
C#|-----------------|-----------------|-----------------|-----------------|
G#|-----------------|-----------------|-----------------|-----------------|
E |-----------------|-----------------|-----------------|-----------------|
B |-----------------|-----------------|-----------------|-----------------|
F#|-0-0-1-0---0-1---|-0-0-1-0---0-1---|-0-0-1-0---0-1---|-0-0-1-0---0-1---|
B |-0-0-1-0---0-1---|-0-0-1-0---0-1---|-0-0-1-0---0-1---|-0-0-1-0---0-1---| 
    . .       .       . .       .       . .       .       . .       .      

C#|-----------------|
G#|-----------------|
E |-----------------|
B |-----------------|
F#|-0-0-1-0---0-1---|
B |-0-0-1-0---0-1---|
    . .       .

| /  slide up
| \  slide down
| h  hammer-on
| p  pull-off
| ~  vibrato
| +  harmonic
| x  Mute note
===============================================================================

            
            
Suggest correction
Creating personal tab
Creating personal tab
You can edit any tab online and save it as your Personal.

You can edit, replace or remove any tab part or add personal notes – all changes will be seen only by you.

Personal tabs can be accessed anytime from any device, even offline.
Learn more »
Give kudos to tab author, rate the tab!
1 2 3 4 5
comments
print report bad tab
guest
You may want to rate the tab now too:
select rating
Wanna post a correction for this tab? Suggest correction