Oops, an error
Loading. Please wait.

The Nameless bass

version 1
version 1

Whole song

Interactive

6,830 views 3 this week
no commentswrite comment
1 2 3 4 5
1 last vote to show rating
add to favorites
×
Save as Personal and add changes to this tab that will be seen only by you. Learn more ›
×
You can save this tab as Personal to edit and correct it or add notes. All changes will be seen only by you. Learn more »
launch autoscroll
font size
0
reset
guitar tuner
edit
Autoscroll
slow
fast
+/-
esc
set tempo
stop
Author
Slipknot
The Nameless
Vol. 3 (The Subliminal Verses)
Tabbed by Ricottaj(first tab; if there are any mistakes, contact me.)

Drop B tuning: BEAD
Tempo: Approxamitley 202 beats per minutes

\= Slide Down
p= Pull off
h= Hammer on
x= a dead note

RIFF ONE
D|--------------------------|
A|--------------------------|
E|--------------------------|
B|22--333322-41----333322---| x2


RIFF TWO
D|-----------------------------|
A|-----------------------------|
E|-----------------------------|
B|22--333322-4\111111111111111-| x1


RIFF THREE
D|-------------------------------------------------|
A|-------------------------------------------------|
E|2------------------------2--------------------0h2|
B|-03p2p0-0-0-0-0-0-6p5h6p5-03p2p0-0-0-0-0-2h4p0---| x4


RIFF ONE
D|--------------------------|
A|--------------------------|
E|--------------------------|
B|22--333322-41----333322---| x3


RIFF TWO
D|----------------------------|
A|----------------------------|
E|----------------------------|
B|22--333322-4111111111111111-| x1


RIFF THREE
D|-------------------------------------------------|
A|-------------------------------------------------|
E|2------------------------2--------------------0h2|
B|-03p2p0-0-0-0-0-0-6p5h6p5-03p2p0-0-0-0-0-2h4p0---|x2 


->BREAK<-
There is a chorus here, only with guitar and vocalist.

At 1:19:

D|----------------|------------------|------------------|
A|----------------|------------------|------------------|
E|----------------|------------------|------------------|
B|5---------------|(5)---------------|(5)---------------| x1
 (Hold for 12 beats)


RIFF ONE
D|--------------------------|
A|--------------------------|
E|--------------------------|
B|22--333322-41----333322---| x6


RIFF TWO
D|----------------------------|
A|----------------------------|
E|----------------------------|
B|22--333322-4111111111111111-| x1


RIFF THREE
D|-------------------------------------------------|
A|-------------------------------------------------|
E|2------------------------2--------------------0h2|
B|-03p2p0-0-0-0-0-0-6p5h6p5-03p2p0-0-0-0-0-2h4p0---| x2


 ->BREAK<-
There is also a chorus here, only with guitar and vocalist.

At 2:37:

[Triplet Feel]
D|------|
A|------|
E|------|
B|5-5---| x1
 [Let ring]


->BREAK<-
Guitar Solo, no Bass is playing here.

At 2:54:

RIFF FOUR
D|-------------------------------------|
A|-------------------------------------|
E|-2-------------2-------------2-3-----|
B|--03-0-2-0h2p0--03-0-2-0h2p0-----3-2-| x1

RIFF FIVE
D|--------------------------------------|
A|--------------------------------------|
E|-2-------------2------------2---------|
B|--03-0-2-0h2p0--03-0-2-0h2p0---5-4-2--| x1

RIFF FOUR
D|-------------------------------------|
A|-------------------------------------|
E|-2-------------2-------------2-3-----|
B|--03-0-2-0h2p0--03-0-2-0h2p0-----3-2-| x1

RIFF FIVE
D|--------------------------------------|
A|--------------------------------------|
E|-2-------------2------------2---------|
B|---3-0-2-0h2p0---3-0-2-0h2p0---5-4-2--| x1

RIFF FOUR
D|-------------------------------------|
A|-------------------------------------|
E|-2-------------2-------------2-3-----|
B|--03-0-2-0h2p0--03-0-2-0h2p0-----3-2-| x1

RIFF FIVE
D|--------------------------------------|
A|--------------------------------------|
E|-2-------------2------------2---------|
B|--03-0-2-0h2p0--03-0-2-0h2p0---5-4-2--| x1

RIFF FOUR
D|-------------------------------------|
A|-------------------------------------|
E|-2-------------2-------------2-3-----|
B|--03-0-2-0h2p0--03-0-2-0h2p0-----3-2-| x1

RIFF FIVE
D|--------------------------------------|
A|--------------------------------------|
E|-2-------------2------------2---------|
B|---3-0-2-0h2p0--03-0-2-0h2p0---5-4-2--| x1

RIFF FOUR
D|-------------------------------------|
A|-------------------------------------|
E|-2-------------2-------------2-3-----|
B|--03-0-2-0h2p0--03-0-2-0h2p0-----3-2-| x1

RIFF FIVE
D|--------------------------------------|
A|--------------------------------------|
E|-2-------------2------------2---------|
B|--03-0-2-0h2p0--03-0-2-0h2p0---5-4-2--| x1

RIFF SIX
D|-----------------------|
A|-----------------------|
E|-2-------4-------------|
B|---3-2-3---3-2-3-0-0-0-| x1

RIFF SEVEN
D|----------------------------------------------------------------------
A|----------------------------------------------------------------------
E|----------------------------------------------------------------------
B|-0---3---0---8---7---0---3---6-----0---3---0---88888888--7---0---3---6
  ------------|
  ------------|
  ------------|
  (6666666)---|x1

RIFF EIGHT(x1)
E|--------------------------------------------------------------------------
B|-0---3---0---xxxxxxxx--7---0---3---6-----0---3---0---xxxxxxxx--7---0---3-6

RIFF NINE
D|----------------------------------------------------------|
A|----------------------------------------------------------|
E|---------------------3-5-3------------------------2-4-2---|
B|-10-00-100-10-00-100-------3--10-00-100-10-00-100-------2-|x3

D|--------------------------------------------------|
A|--------------------------------------------------|
E|---------------------3-5-3------------------------|
B|-10-00-100-10-00-100-------3--10-00-100-10-00-100-|x1

THE END

            
            
Suggest correction
Creating personal tab
Creating personal tab
You can edit any tab online and save it as your Personal.

You can edit, replace or remove any tab part or add personal notes – all changes will be seen only by you.

Personal tabs can be accessed anytime from any device, even offline.
Learn more »
Give kudos to tab author, rate the tab!
1 2 3 4 5
comments
print report bad tab
guest
You may want to rate the tab now too:
select rating
Wanna post a correction for this tab? Suggest correction