Oops, an error
Loading. Please wait.

The Nameless tab

version 2
version 2

Whole song

Interactive

5,909 views 3 this week
11 commentsread comments
1 2 3 4 5
x 10
add to favorites
×
Save as Personal and add changes to this tab that will be seen only by you. Learn more ›
×
You can save this tab as Personal to edit and correct it or add notes. All changes will be seen only by you. Learn more »
launch autoscroll
font size
0
reset
how to read this tab
guitar tuner
edit
Autoscroll
slow
fast
+/-
esc
set tempo
stop
Difficulty
intermediate
Slipknot - The Nameless

Tuning Dropped B

Tabbed by Eric Jorgenson


Intro
|--------------------------|--------------------------|
|--------------------------|--------------------------|
|--------------------------|--------------------------|
|--------------------------|--------------------------|
|--------------------------|--------------------------|
|-1010---12121212-1010-99--|----------12121212-1010---|
   . .    . . . .  . . ..              . . . .  . .

10's, 12's, and 9's, not 1's 2's and 99's =P

|--------------------------|--------------------------|
|--------------------------|--------------------------|
|--------------------------|--------------------------|
|--------------------------|--------------------------|
|--------------------------|--------------------------|
|-1010---12121212-1010-99--|----------12121212-1010---|
   . .    . . . .  . . ..              . . . .  . .   
 
|-------------------------|
|-------------------------|
|-------------------------|
|-10/////////////////////-|
|-8-/////////////////////-|
|-------------------------|
  .......................


|--------------------------| |------------------|
|--------------------------| |------------------|
|--------------------------| |------------------|
|--------------------------| |------------------|
|-33--4444-33--22--4444--33| |-2///////////////-|
|-33--4444-33--22--4444--33| |-0///////////////-|       
                               ................

|---------------------------| |---------|
|---------------------------| |---------|
|---------------------------| |---------|
|---------------------------| |---------|
|-4p3p2p1--2///////////////-| |-1h2p1h2-|
|----------0///////////////-| |---------|
           ................

*|-----------|* ------------------|----------------------------------|
*|-----------|* ------------------|----------------------------------|
*|-----------|* ------------------|----------------------------------|
*|-----------|* -4--5--6--4--5--5-|----------------------------------|
*|-------0h2-|* -5--6--7--5--6--6-|-4p3p2p1--4p3p2p1-1h2p1h2-1h2p1h2-|
*|-0h2h3-----|* ------------------|----------------------------------|

(stuff in *'s) Play this extremely fast if you can, otherwise substitute like, one rest??
Listen and figure out the rhythm, it's like a fill really..
For the last part.. it get's a little hard to hear, so do what you think is right..
..I just kinda improv around what I put.

Chorus (Clean, duh..)

(Em Barre)               (C)
|----7-----7-----7-----7-|----0-----0-----0-----0-|
|-8-----8--8--8--8--8--8-|-1-----1-----1-----1----|
|-9-----9-----9-----9----|-0----------------------|
|-9----------------------|-2----------------------|
|-7----------------------|-3----------------------|
|------------------------|------------------------|

(B7th Barre)             (Em Barre)                 (Em Barre)
|----2-----2-----2-----2-|----7-----7-----7-----7-| |-------|
|-5-----5--5--4--4--4--4-|-8-----8--8--8--8--8--8-| |-8-----|
|-2-----2-----2-----2----|-9-----9-----9-----9----| |-9-----|
|-4----------------------|-9----------------------| |-9-----|
|-2----------------------|-7----------------------| |-7-----|
|------------------------|------------------------| |-------|

On the second run, play these 4 measures twice before the long (Em)


Verse

|----------------------------------------| |------------------|
|----------------------------------------| |------------------|
|----------------------------------------| |------------------|
|----------------------------------------| |------------------|
|-22--3333-22--22----------333333--22----| |-2///////////////-|
|-22--3333-22--22----------333333--22----| |-0///////////////-|
                                             ................

|---------------------------| |---------|
|---------------------------| |---------|
|---------------------------| |---------|
|---------------------------| |---------|
|-4p3p2p1--2///////////////-| |-1h2p1h2-|
|----------0///////////////-| |---------|
           ................


*|-----------|* ------------------|----------------------------------|
*|-----------|* ------------------|----------------------------------|
*|-----------|* ------------------|----------------------------------|
*|-----------|* -4--5--6--4--5--5-|----------------------------------|
*|-------0h2-|* -5--6--7--5--6--6-|-4p3p2p1--4p3p2p1-1h2p1h2-1h2p1h2-|
*|-0h2h3-----|* ------------------|----------------------------------|

(stuff in *'s) Play this extremely fast if you can, otherwise substitute like, one rest??
Listen and figure out the rhythm, it's like a fill really..

|-------------|------------|------------| |------------|
|-------------|------------|------------| |------------|
|-------------|-------5--4-|------------| |------------|
|-------------|-1--2-------|-------4--2-| |-------4--2-|
|-4-----------|-------3--2-|-5--4-------| |-8--7-------|
|---2-1-3-221-|------------|-------2--1-| |-------2--1-|
          ...

|----------------|------------|------------| |------------|
|----------------|------------|------------| |------------|
|----------------|-------5--4-|------------| |------------|
|----------------|-1--2-------|-------4--2-| |-------4--2-|
|-5/4------------|-------3--2-|-5--4-------| |-8--7-------|
|--------1-3-221-|------------|-------2--1-| |-------2--1-|
         . . ...


The final Chorus is just this, except differentiate with the Em around the board
and other minor things, but it's these basic chords again. 
..also there's distortion, duh.

(Em Barre)               (C)
|----7-----7-----7-----7-|----0-----0-----0-----0-|
|-8-----8--8--8--8--8--8-|-1-----1-----1-----1----|
|-9-----9-----9-----9----|-0----------------------|
|-9----------------------|-2----------------------|
|-7----------------------|-3----------------------|
|------------------------|------------------------|

(B7th Barre)             (Em Barre)                 (Em Barre)
|----2-----2-----2-----2-|----7-----7-----7-----7-| |-------|
|-5-----5--5--4--4--4--4-|-8-----8--8--8--8--8--8-| |-8-----|
|-2-----2-----2-----2----|-9-----9-----9-----9----| |-9-----|
|-4----------------------|-9----------------------| |-9-----|
|-2----------------------|-7----------------------| |-7-----|
|------------------------|------------------------| |-------|

            
            
Suggest correction
Creating personal tab
Creating personal tab
You can edit any tab online and save it as your Personal.

You can edit, replace or remove any tab part or add personal notes – all changes will be seen only by you.

Personal tabs can be accessed anytime from any device, even offline.
Learn more »
comments
print report bad tab
11 comments total. Showing first comments.
0 reply
riffuntilidie 80 Nov 05, 2005 07:48 AM

u made this tab so confusing everythings out of ordeer,some of the song isnt even there!

0 reply
LosNamo 10 Nov 16, 2005 05:34 PM

yes it is, and it is in order

0 reply
Metal-Head589 71 Feb 26, 2006 04:16 AM

not even close to accurate.

guest
Wanna post a correction for this tab? Suggest correction