Oops, an error
Loading. Please wait.

The Nameless tab

version 4
version 4

Whole song

Interactive

20,068 views 18 this week
5 commentsread comments
1 2 3 4 5
x 14
add to favorites
×
Save as Personal and add changes to this tab that will be seen only by you. Learn more ›
×
You can save this tab as Personal to edit and correct it or add notes. All changes will be seen only by you. Learn more »
launch autoscroll
font size
0
reset
how to read this tab
guitar tuner
edit
Autoscroll
slow
fast
+/-
esc
set tempo
stop
Author
Tabbed by: wtflolbbq
Email: boxfactory76@yahoo.com


Well, the other tab was good. Really good. But, not perfect. So....
Here you are Slipknot fans. 100% correct "The Nameless"

Guitar 1 and Guitar 2 are seperated to make it a bit more pleasing
to the eyes.

By the way, if you are wondering what + and * is, go to the bottom of the page
for some endnotes. I explain it in quite some detail. ^^ rate and comment please!!!


Tuning: Drop B

Guitar 1 part... Go!
C#|--------------------------------------------x2-|
G#|-----------------------------------------------|
E |-4-4--5-5-5-5-5-5-4-4--7-----5-5-5-5-5-5-4-4---|
B |-------------------------7---------------------|
F#|-----------------------------------------------|
B |-----------------------------------------------|
    . .  . . . . . . . .  . .   . . . . . . . .

C#|--------------------------------------------------------------|
G#|--------------------------------------------------------------|
E |-4-4--5-5-5-5-5-5-4-4--7--------------------------------------|
B |-------------------------0------------------------------------|
F#|---------------------------1-1-1-1-1-1-1-1-1-1-1-1-1-1-1-1-1--|
B |---------------------------1-1-1-1-1-1-1-1-1-1-1-1-1-1-1-1-1--|
    . .  . . . . . . . .      . . . . . . . . . . . . . . . . .

C#|---------------------------------------------------------------|
G#|o--------------------------------------------------------------|
E |---------------------------------------------------------------|
B |--4\3---------------------------4\3----------------------------|
F#|o-2\1-0---------------6p5-6p5---2\1-0---------------------0h1--|
B |--------2-0-0-0-0-0-0-6p5-6p5-0-------2-0-0-0-0-0-0-0h2h3------|
               . . . . .                     . . . . .

C#|-----------------------------------------|   
G#|-----------------------------------------|
E |-----------------------------------------|
B |-4\3-----1h4p1-2h5p2-3h6p3-2h5p2-3h5p3-4-|
F#|-2\1-0-----------------------------------|
B |-------2---------------------------------|

C#|----------first-ending-----------|-------second-ending-------------|
G#|--------------------------------o|---------------------------------|
E |---------------------------------|---------------------------------|
B |-4\3-------4\3-------------------|-4\3-------4\3-------------------|
F#|-2\1-0-2-0-2\1p0-----------0-1--o|-2\1-0-2-0-2\1-0-----------0-----|
B |-------2-0-------2p0-2-3-5-------|-------2-0-------2p0-2-3-5---2-0-|

C#|--------------------------------------------|
G#|--------------------------------------------|
E |--------------------------------------------|
B |--------------------------------------------|
F#|-2-2------------------------------------2-2-|
B |-2-2--3-3-3-3-3-3-2-2--5-0--3-3-3-3-3-3-2-2-|

C#|-----------------------------------------------|
G#|-----------------------------------------------|
E |-----------------------------------------------|
B |-----------------------------------------------|
F#|-2-2---------------------------------------2---|
B |-2-2--3-3-3-3-3-3-3-2-2--5-1---3-3-3-3-3-3-2---|

C#|------------------------------------------------|
G#|------------------------------------------------|
E |------------------------------------------------|
B |------------------------------------------------|
F#|-2-2---------------------------------------2-2--|
B |-2-2--3-3-3-3-3-3-3-2-2--5-1---3-3-3-3-3-3-2-2--|

C#|----------------------------------------------------------------|
G#|----------------------------------------------------------------|
E |----------------------------------------------------------------|
B |----------------------------------------------------------------|
F#|-2-2-------------------------1-1-1-1-1-1-1-1-1-1-1-1-1-1-1-1-1--|
B |-2-2--3-3-3-3-3-3-3-2-2--5-1-1-1-1-1-1-1-1-1-1-1-1-1-1-1-1-1-1--|
                                . . . . . . . . . . . . . . . . .

C#|--------------------------------------------------------------------|
G#|--------------------------------------------------------------------|
E |--------------------------------------------------------------------|
B |-4\3-0-------------------------4\3-0---------------------3-4\3-0----|
F#|-2\1-0---------------6p5-6p5---2\1-0-------------5h6-3h5-1-2\1-0----|
B |-------0-0-0-0-0-0-0-6p5-6p5-0-------0-0-0-0-0-0-5h6-3h5---------0--|
            . . . . . .                 . . . . . .

C#|-----------------------------------|----------------------------|
G#|-----------------------------------|----------------------------|
E |-----------------------------------|----------------------------|
B |-1h4p1-2h5p2-3h6p3-2h5p2-3h5p3-4---|-4\3-0-----4\3--------------|
F#|-----------------------------------|-2\1-0-2-0-2\1p0-2-0-2-3-5--|
B |-----------------------------------|-------2-0-------2-0-2-3-5--|

C#|-5---5---5---5---6---6---6---6---5---5---5---5---5---5---5---5----|+
G#|---6---6---6---6---6---6---6---6---6---6---5---5---6---6---6---6--|
E |------------------------------------------------------------------|
B |------------------------------------------------------------------|
F#|------------------------------------------------------------------|
B |------------------------------------------------------------------|

C#|-5---5---5---5---6---6---6---6---5---5---5---5-----4-----|
G#|---6---6---6---6---6---6---6---6---6---6---5---5---4-----|
E |---------------------------------------------------5-----|
B |---------------------------------------------------------|
F#|---------------------------------------------------------|
B |---------------------------------------------------------|

C#|--------------------------------------------x2-|
G#|-----------------------------------------------|
E |-4-4--5-5-5-5-5-5-4-4--7-----5-5-5-5-5-5-4-4---|
B |-------------------------7---------------------| bass slide
F#|-----------------------------------------------|
B |-----------------------------------------------|
    . .  . . . . . . . .  . .   . . . . . . . .

C#|----------------------------------------------x3-|
G#|-------------------------------------------------|
E |-------------------------------------------------|
B |-------------------------------------------------|
F#|-------------------------------------------------|
B |-0-0--1-1-1-1-1-1-0-0--0-0---1-1-1-1-1-1-0-0-----|

C#|---------------------------------------------------------------|
G#|---------------------------------------------------------------|
E |---------------------------------------------------------------|
B |---------------------------------------------------------------|
F#|-------------------------------1-1-1-1-1-1-1-1-1-1-1-1-1-1-1---|
B |-0-0--1-1-1-1-1-1-0-0--0-0-1-1-1-1-1-1-1-1-1-1-1-1-1-1-1-1-1---|
                              . . . . . . . . . . . . . . . . .

C#|--------------------------------------------------------------------|
G#|--------------------------------------------------------------------|
E |--------------------------------------------------------------------|
B |-4\3-0-------------------------4\3-0---------------------3-4\3-0----|
F#|-2\1-0---------------6p5-6p5---2\1-0-------------5h6-3h5-1-2\1-0----|
B |-------0-0-0-0-0-0-0-6p5-6p5-0-------0-0-0-0-0-0-5h6-3h5---------0--|
            . . . . . .                 . . . . . .

C#|-----------------------------------|----------------------------|
G#|-----------------------------------|----------------------------|
E |-----------------------------------|----------------------------|
B |-1h4p1-2h5p2-3h6p3-2h5p2-3h5p3-4---|-4\3-0-----4\3--------------|
F#|-----------------------------------|-2\1-0-2-0-2\1p0-2-0-2-3-5--|
B |-----------------------------------|-------2-0-------2-0-2-3-5--|

C#|-5---5---5---5---6---6---6---6---5---5---5---5---5---5---5---5----|
G#|---6---6---6---6---6---6---6---6---6---6---5---5---6---6---6---6--|
E |------------------------------------------------------------------|
B |---------------------------------------------------------------x3-|
F#|------------------------------------------------------------------|
B |------------------------------------------------------------------|

C#|-5---5---5---5---6---6---6---6---5---5---5---5-----4-----|+
G#|---6---6---6---6---6---6---6---6---6---6---5---5---4-----|
E |---------------------------------------------------5-----|
B |---------------------------------------------------------|
F#|---------------------------------------------------------|
B |---------------------------------------------------------|

C#|--------------------------------------------------------------------x2-|
G#|--------all-ones-------------------------------------------------------|
E |-----------------------------------------------------------------------|
B |-----------------------------------------------------------------------|
F#|---------------------------3-4--------------------------------2-1------|
B |-8\1-0-2-11-0-8\1-0-2-11-0-----6-5--8\1-0-2-11-0-8\1-0-2-11-0-----1-2--|

C#|--------------------------------------------------------------------x4-|
G#|-----------------------------------------------------------------------|
E |-----------------------------------------------------------------------|
B |---------------------------5-6--------------------------------4-3------|
F#|-8\1-0-2-11-0-8\1-0-2-11-0-3-4-6-5--8\1-0-2-11-0-8\1-0-2-11-0-2-1-1-2--|
B |-8\1-0-2-11-0-8\1-0-2-11-0-----6-5--8\1-0-2-11-0-8\1-0-2-11-0-----1-2--|
        . . .. .     . . .. .              . . .. .     . . .. .

C#|-----------------------|-------------------------------------x2-|
G#|---------staccato------|----------------------------------------|
E |--------------------AHHHH--------/12-10-10\---------------------|
B |-6-5------v--v--v------|-----------x--x--x------7\--------------|
F#|-4-3-3-4---------------|-0--3--0-/10--8--8\--7--5\-3--6---------|
B |-----3-4--0--0--0------|-0--3--0-------------7-----3--6--0\/*---|


C#|--------------------------------------------------------|
G#|---------------elevens----------------------------------|
E |-------------------------------2--5--8------------------|
B |----------------------------------x--x------------------|
F#|-0--3--0--8--111111111111---7-----3--6------------------|
B |-0--3--0--8---8-8-8-8-8-8-8-7-----------0-0-0-0-0-0-0---|
                 . . . . . . .               . . . . . .

C#|--------------------------------------------------------|
G#|--------------------------------------------------------|
E |--------------------------------------------------------|
B |-------------------------------7\-----------------------|
F#|-0--3--0--8--111111111111---7--5\-3--6------------------|
B |-0--3--0--8---8-8-8-8-8-8-7-7-----3--6--------/19\------|
                 . . . . . . .

C#|-----------------------------------------------------------------------|
G#|-----------------------------------------------------------------------|
E |-----------------------------------------------------------------------|
B |-----------------------------------------------------------------------|
F#|---------------------------3-4--------------------------------2-1------|
B |-8\1-0-2-11-0-8\1-0-2-11-0-----6-5--8\1-0-2-11-0-8\1-0-2-11-0-----1-2--|

C#|--------------------------------------------------------------------x2-|
G#|-----------------------------------------------------------------------|
E |-----------------------------------------------------------------------|
B |---------------------------5-6--------------------------------4-3------|
F#|-8\1-0-2-11-0-8\1-0-2-11-0-3-4-6-5--8\1-0-2-11-0-8\1-0-2-11-0-2-1-1-2--|
B |-8\1-0-2-11-0-8\1-0-2-11-0-----6-5--8\1-0-2-11-0-8\1-0-2-11-0-----1-2--|

C#|---------------------------------------------------------------|
G#|---------------------------------------------------------------|
E |---------------------------------------------------------------|
B |---------------------------5-6---------------------------------|
F#|-8\1-0-2-11-0-8\1-0-2-11-0-3-4-6-5--8\1-0-2-11-0-8\1-0-2-11-0--|
B |-8\1-0-2-11-0-8\1-0-2-11-0-----6-5--8\1-0-2-11-0-8\1-0-2-11-0--|
        . . .. .     . . .. .              . . .. .     . . ..

And you are finished!

~~~~~~~~~~~~~~~~~~~~~~~~~~~~~~~~~~~~~~~~~~~~~~~~~~~~~~~~~~~~~~~~~~~~~~~~~

Guitar 2 part:
C#|--------------------------------------------x2-|
G#|-----------------------------------------------|
E |-----------------------------------------------|
B |-2-2--3-3-3-3-3-3-2-2--5-1---3-3-3-3-3-3-2-2---|
F#|-----------------------------------------------|
B |-----------------------------------------------|
    . .  . . . . . . . .  . .   . . . . . . . .

C#|--------------------------------------------------------------|
G#|--------------------------------------------------------------|
E |--------------------------------------------------------------|
B |-2-2--3-3-3-3-3-3-2-2--5p0------------------------------------|
F#|---------------------------1-1-1-1-1-1-1-1-1-1-1-1-1-1-1-1-1--|
B |---------------------------1-1-1-1-1-1-1-1-1-1-1-1-1-1-1-1-1--|
    . .  . . . . . . . .      . . . . . . . . . . . . . . . . .

C#|---------------------------------------------------------------|
G#|o--------------------------------------------------------------|
E |---------------------------------------------------------------|
B |--4\3---------------------------4\3----------------------------|
F#|o-2\1-0---------------6p5-6p5---2\1-0---------------------0h1--|
B |--------2-0-0-0-0-0-0-6p5-6p5-0-------2-0-0-0-0-0-0-0h2h3------|
               . . . . .                     . . . . .

C#|-----------------------------------------|
G#|-----------------------------------------|
E |-----------------------------------------|
B |-4\3-------------------------------------|
F#|-2\1-0---2h5p2-3h6p3-4h7p4-3h6p3-4h7p4-5-|
B |-------2---------------------------------|

C#|----------first-ending-----------|-------second-ending-------------|
G#|--------------------------------o|---------------------------------|
E |---------------------------------|---------------------------------|
B |-4\3-------4\3-------------------|-4\3-------4\3-------------------|
F#|-2\1-0-2-0-2\1p0-----------0-1--o|-2\1-0-2-0-2\1-0-----------0-----|
B |-------2-0-------2p0-2-3-5-------|-------2-0-------2p0-2-3-5---2-0-|

C#|--------------------------------------------|
G#|--------------------------------------------|
E |--------------------------------------------|
B |--------------------------------------------|
F#|-2-2------------------------------------2-2-|
B |-2-2--3-3-3-3-3-3-2-2--5-0--3-3-3-3-3-3-2-2-|

C#|-----------------------------------------------|
G#|-----------------------------------------------|
E |-----------------------------------------------|
B |-----------------------------------------------|
F#|-2-2---------------------------------------2---|
B |-2-2--3-3-3-3-3-3-3-2-2--5-1---3-3-3-3-3-3-2---|

C#|------------------------------------------------|
G#|------------------------------------------------|
E |------------------------------------------------|
B |------------------------------------------------|
F#|-2-2---------------------------------------2-2--|
B |-2-2--3-3-3-3-3-3-3-2-2--5-1---3-3-3-3-3-3-2-2--|

C#|----------------------------------------------------------------|
G#|----------------------------------------------------------------|
E |----------------------------------------------------------------|
B |----------------------------------------------------------------|
F#|-2-2-------------------------1-1-1-1-1-1-1-1-1-1-1-1-1-1-1-1-1--|
B |-2-2--3-3-3-3-3-3-3-2-2--5-1-1-1-1-1-1-1-1-1-1-1-1-1-1-1-1-1-1--|
                                . . . . . . . . . . . . . . . . .

C#|--------------------------------------------------------------------|
G#|--------------------------------------------------------------------|
E |--------------------------------------------------------------------|
B |-4\3-0-------------------------4\3-0---------------------3-4\3-0----|
F#|-2\1-0---------------6p5-6p5---2\1-0-------------5h6-3h5-1-2\1-0----|
B |-------0-0-0-0-0-0-0-6p5-6p5-0-------0-0-0-0-0-0-5h6-3h5---------0--|
            . . . . . .                 . . . . . .

C#|---------------------------------|----------------------------|
G#|---------------------------------|----------------------------|
E |---------------------------------|----------------------------|
B |---------------------------------|-4\3-0-----4\3--------------|
F#|-2h5p2-3h6p3-4h7p4-3h6p3-4h7p4-5-|-2\1-0-2-0-2\1p0-2-0-2-3-5--|
B |---------------------------------|-------2-0-------2-0-2-3-5--|

C#|-----------------------------------------------------------------|+
G#|-6---6---6---6-----6---6---6---6---6---6---5---5-6---6---6---6---|
E |---7---7---7---7-----------------------------------7---7---7---7-|
B |-----------------8---8---8---8---7---7---7---7-------------------|
F#|-----------------------------------------------------------------|
B |-----------------------------------------------------------------|

C#|-------------------------------------------------------|
G#|-6---6---6---6-----6---6---6---6---6---6---5---5--4----|
E |---7---7---7---7----------------------------------5----|
B |-----------------8---8---8---8---7---7---7---7----6----|
F#|-------------------------------------------------------|
B |-------------------------------------------------------|

C#|--------------------------------------------x2-|
G#|-----------------------------------------------|
E |-----------------------------------------------|
B |-2-2--3-3-3-3-3-3-2-2--5-1---3-3-3-3-3-3-2-2---| bass slide
F#|-----------------------------------------------|
B |-----------------------------------------------|
    . .  . . . . . . . .  . .   . . . . . . . .

C#|----------------------------------------------x3-|
G#|-------------------------------------------------|
E |-------------------------------------------------|
B |-------------------------------------------------|
F#|-------------------------------------------------|
B |-0-0--1-1-1-1-1-1-0-0--0-0---1-1-1-1-1-1-0-0-----|

C#|---------------------------------------------------------------|
G#|---------------------------------------------------------------|
E |---------------------------------------------------------------|
B |---------------------------------------------------------------|
F#|-------------------------------1-1-1-1-1-1-1-1-1-1-1-1-1-1-1---|
B |-0-0--1-1-1-1-1-1-0-0--0-0-1-1-1-1-1-1-1-1-1-1-1-1-1-1-1-1-1---|
                              . . . . . . . . . . . . . . . . .

C#|--------------------------------------------------------------------|
G#|--------------------------------------------------------------------|
E |--------------------------------------------------------------------|
B |-4\3-0-------------------------4\3-0---------------------3-4\3-0----|
F#|-2\1-0---------------6p5-6p5---2\1-0-------------5h6-3h5-1-2\1-0----|
B |-------0-0-0-0-0-0-0-6p5-6p5-0-------0-0-0-0-0-0-5h6-3h5---------0--|
            . . . . . .                 . . . . . .

C#|---------------------------------|----------------------------|
G#|---------------------------------|----------------------------|
E |---------------------------------|----------------------------|
B |---------------------------------|-4\3-0-----4\3--------------|
F#|-2h5p2-3h6p3-4h7p4-3h6p3-4h7p4-5-|-2\1-0-2-0-2\1p0-2-0-2-3-5--|
B |---------------------------------|-------2-0-------2-0-2-3-5--|

C#|--------------------------------------------------------------x3-|
G#|-6---6---6---6-----6---6---6---6---6---6---5---5-6---6---6---6---|
E |---7---7---7---7-----------------------------------7---7---7---7-|
B |-----------------8---8---8---8---7---7---7---7-------------------|
F#|-----------------------------------------------------------------|
B |-----------------------------------------------------------------|

C#|---------------------------------------------------------------|
G#|-6---6---6---6-----6---6---6---6---6---6---5---5--4------------|
E |---7---7---7---7----------------------------------5------------|
B |-----------------8---8---8---8---7---7---7---7----6------------|
F#|---------------------------------------------------------------|
B |----------------------------------------------------------/20\-|

C#|--------------------------------------------------------------------x2-|
G#|--------all-ones-------------------------------------------------------|
E |-----------------------------------------------------------------------|
B |-------------------------------6-5-------------------------------------|
F#|---------------------------3-4--------------------------------2-1------|
B |-8\1-0-2-11-0-8\1-0-2-11-0----------8\1-0-2-11-0-8\1-0-2-11-0-----1-2--|

C#|--------------------------------------------------------------------x4-|
G#|-----------------------------------------------------------------------|
E |-----------------------------------------------------------------------|
B |---------------------------5-6--------------------------------4-3------|
F#|-8\1-0-2-11-0-8\1-0-2-11-0-3-4-6-5--8\1-0-2-11-0-8\1-0-2-11-0-2-1-1-2--|
B |-8\1-0-2-11-0-8\1-0-2-11-0-----6-5--8\1-0-2-11-0-8\1-0-2-11-0-----1-2--|
        . . .. .     . . .. .              . . .. .     . . .. .

C#|------------------------|---------------------------------x2-|
G#|---------staccato-------|------------------------------------|
E |--------------------AHHHH------------------------------------|
B |-6-5------v--v--v-------|--------------------7\--------------|
F#|-4-3-3-4----------------|-0--3--0--8------7--5\-3--6---------|
B |-----3-4--0--0--0-------|-0--3--0--8------7-----3--6--0\/*---|

C#|-------------------------------------------------------|
G#|---------------elevens---------------------------------|
E |-------------------------------------------------------|
B |------------------------------7\-----------------------|
F#|-0--3--0--8--111111111111--7--5\-3--6------------------|
B |-0--3--0--8---8-8-8-8-8-8--7-----3--6--0-0-0-0-0-0-0---|
                 . . . . .                  . . . . . .

C#|--------------------------------------------------------|
G#|--------------------------------------------------------|
E |--------------------------------------------------------|
B |-------------------------------7\-----------------------|
F#|-0--3--0--8--111111111111---7--5\-3--6------------------|
B |-0--3--0--8---8-8-8-8-8-8-7-7-----3--6--------/19\------|
                 . . . . . . .

C#|-----------------------------------------------------------------------|
G#|-------------------------------9-8-------------------------------------|
E |-------------------------------x-x-------------------------------------|
B |-------------------------------6-5----------------------------4-3------|
F#|---------------------------3-4--------------------------------2-1-1-2--|
B |-8\1-0-2-11-0-8\1-0-2-11-0----------8\1-0-2-11-0-8\1-0-2-11-0-----1-2--|

C#|--------------------------------------------------------------------x2-|
G#|-------------------------------9-8-------------------------------------|
E |-------------------------------x-x-------------------------------------|
B |---------------------------5-6-6-5----------------------------4-3------|
F#|-8\1-0-2-11-0-8\1-0-2-11-0-3-4------8\1-0-2-11-0-8\1-0-2-11-0-2-1-1-2--|
B |-8\1-0-2-11-0-8\1-0-2-11-0----------8\1-0-2-11-0-8\1-0-2-11-0-----1-2--|
        . . .. .     . . .. .              . . .. .     . . .. .

C#|---------------------------------------------------------------|
G#|-------------------------------9-8-----------------------------|
E |-------------------------------x-x-----------------------------|
B |---------------------------5-6-6-5-----------------------------|
F#|-8\1-0-2-11-0-8\1-0-2-11-0-3-4------8\1-0-2-11-0-8\1-0-2-11-0--|
B |-8\1-0-2-11-0-8\1-0-2-11-0----------8\1-0-2-11-0-8\1-0-2-11-0--|
        . . .. .     . . .. .              . . .. .     . . ..


And you are finished!

_____________________________________________

ENDNOTES

Alternatively, if you want to play the song by yourself,
you can play the intro like this:

C#|--------------------------------------------x2-|
G#|-----------------------------------------------|
E |-----------------------7-----------------------|
B |-9-9-101010101010-9-9--5-7--101010101010-9-9---|
F#|-7-7--8-8-8-8-8-8-7-7----5---8-8-8-8-8-8-7-7---|
B |-----------------------------------------------|
    . .  . . . . . . . .  . .   . . . . . . . .


* The 0\/ notation in the third chorus or so...
  Hit the low B string, then place your right hand
  on the body of your guitar, and your left hand behind
  the fretboard. Then push the neck forward while pushing
  backwards on the body. It'll detune the note. Aim for 1/4th
  of a note down. (Halfway to Bb)

+ During the chorus there is an acoustic guitar playing rhythm
  power chords in the background. Heres the tab for that:

C#|-5---5---5---5---6---6---6---6---5---5---5---5---5---5---5---5----|
G#|---6---6---6---6---6---6---6---6---6---6---5---5---6---6---6---6--|
E |------------------------------------------------------------------|
B |------------------------------------------------------------------|
F#|------------------------------------------------------------------|
B |------------------------------------------------------------------|
  |
C#|------------------------------------------------------------------|
G#|-6---6---6---6-----6---6---6---6---6---6---5---5-6---6---6---6----|
E |---7---7---7---7-----------------------------------7---7---7---7--|
B |-----------------8---8---8---8---7---7---7---7--------------------|
F#|------------------------------------------------------------------|
B |------------------------------------------------------------------|
  |
C#|------------------------------------------------------------------|
G#|------------------------------------------------------------------|
E |------------------------------------------------------------------|
B |-0---------------5---------------7---------------0----------------|
F#|-0---------------5---------------7---------------0----------------|
B |-0---------------5---------------7---------------0----------------|


C#|-5---5---5---5---6---6---6---6---5---5---5---5----4---|
G#|---6---6---6---6---6---6---6---6---6---6---5---5--4---|
E |--------------------------------------------------5---|
B |------------------------------------------------------|
F#|------------------------------------------------------|
B |------------------------------------------------------|
  |
C#|------------------------------------------------------|
G#|-6---6---6---6-----6---6---6---6---6---6---5---5--4---|
E |---7---7---7---7----------------------------------5---|
B |-----------------8---8---8---8---7---7---7---7----6---|
F#|------------------------------------------------------|
B |------------------------------------------------------|
  |
C#|------------------------------------------------------|
G#|------------------------------------------------------|
E |------------------------------------------------------|
B |-0---------------5---------------7----------------6---|
F#|-0---------------5---------------7----------------6---|
B |-0---------------5---------------7----------------6---|

************************************

| x  Dead note
| .  Staccato
| \  Slide down
| h  Hammer-on
| p  Pull-off
| /  Slide up

************************************

            
            
Suggest correction
Creating personal tab
Creating personal tab
You can edit any tab online and save it as your Personal.

You can edit, replace or remove any tab part or add personal notes – all changes will be seen only by you.

Personal tabs can be accessed anytime from any device, even offline.
Learn more »
comments
print report bad tab
5 comments total. Showing first comments.
0 reply
wtflolbbq 345 Apr 28, 2009 10:48 AM

C#|-----------------------------------------|
G#|-----------------------------------------|
E |-----------------------------------------|
B |-4\3-----1h4p1-2h5p2-3h6p3-2h5p2-3h5p3-4-|
F#|-2\1-0-----------------------------------|
B |-------2---------------------------------|

thats the correct errr riff at the very beginning of guitar 1's part. messed it up in the submission process

0 reply
wtflolbbq 345 Apr 29, 2009 02:45 AM

k, ignore that post, i edited the tab.

0 reply
bootneck712 10 Aug 28, 2009 02:39 AM

you obviously worked your ass off to do this, but i prefer LiAm's tab, so I reckon 4*. It's still v good and accurate, especially as you have tabbed both guitars, but when you watch mick play this it looks slightly different
ps. in the 2nd guitar (mick) intro just before the p.chord riffing starts, its 5p1 not 5p0

guest
You may want to rate the tab now too:
select rating
Wanna post a correction for this tab? Suggest correction