Oops, an error
Loading. Please wait.

The One That Kills The Least tab

version 1
version 1

Whole song

Interactive

10,072 views 36 this week
1 commentread comment
1 2 3 4 5
x 10
add to favorites
×
Save as Personal and add changes to this tab that will be seen only by you. Learn more ›
×
You can save this tab as Personal to edit and correct it or add notes. All changes will be seen only by you. Learn more »
launch autoscroll
font size
0
reset
how to read this tab
guitar tuner
edit
Autoscroll
slow
fast
+/-
esc
set tempo
stop

SLIPKNOT

THE ONE THAT KILLS THE LEAST


B-F#-B-E-G#-C#


TABBED BY andherembrace








1
---------------------------------------------------------------------------------|
---------------------------------------------------------------------------------|
---------------------------------------------------------------------------------|
---------------------------------------------------------------------------------|
---------------------------------------------------------------------------------|
-/8-------7-8-7--1---------------0-----------------------------------------------|

2
---------------------------------------------------------------------------------|
---------------------------------------------------------------------------------|
-15--15--15--15--15--15--15--15--14-14-12-12-15-15-12-12-14-14-12-12-15-15-12-12-|
---------------------------------------------------------------------------------|
---------------------------------------------------------------------------------|
---------------------------------------------------------------------------------|
   |   |   |   |   |   |   |   |




1
---------------------------------------------------------------------------------|
---------------------------------------------------------------------------------|
---------------------------------------------------------------------------------|
---------------------------------------------------------------------------------|
---------------------------------------------------------------------------------|
-/8----------------------\-------------------------------------------------------|

2
---------------------------------------------------------------------------------|
-----------------------------------^-----^-----^-----^-----^-----^-----^-----^---|
-15--15--15--15--15--15--15--15--14-15-14-15-14-15-14-15-14-15-14-15-14-15-14-15-|
---------------------------------------------------------------------------------|
---------------------------------------------------------------------------------|
---------------------------------------------------------------------------------|
   |   |   |   |   |   |   |   |




0:15

1
---------------------------------------------------------------------------------|
---------------------------------------------------------------------------------|
---------------------------------------------------------------------------------|
---------------------------------------------------------------------------------|
---------------------------------------------------------------------------------|
-/8-------7-8-7--1---------------0-----------------------------------------------|

2
---------------------------------------------------------------------------------|
---------------------------------------------------------------------------------|
-15--15--15--15--15--15--15--15--14-14-12-12-15-15-12-12-14-14-12-12-15-15-12-12-|
---------------------------------------------------------------------------------|
---------------------------------------------------------------------------------|
---------------------------------------------------------------------------------|
   |   |   |   |   |   |   |   |






1
---------------------------------------------------------------------------------|
---------------------------------------------------------------------------------|
---------------------------------------------------------------------------------|
---------------------------------------------------------------------------------|
---------------------------------------------------------------------------------|
-/8-------7-8-7--1----------1-3-0------------------------------------------------|

2
---------------------------------------------------------------------------------|
-----------------------------------^-----^-----^-----^-----^-----^-----^-----^---|
-15--15--15--15--15--15--15--15--14-15-14-15-14-15-14-15-14-15-14-15-14-15-14-15-|
---------------------------------------------------------------------------------|
---------------------------------------------------------------------------------|
---------------------------------------------------------------------------------|
   |   |   |   |   |   |   |   |




1
---------------------------------------------------------------------------------|
---------------------------------------------------------------------------------|
---------------------------------------------------------------------------------|
-----------------__--------------------------------------------------------------|
----------------/  \-------------------------------------------------------------|
-/8----------7-8/10\8-7-------5-7-0----------------------------------------------|

2
---------------------------------------------------------------------------------|
-----------------------------------^-----^-----^-----^-----^-----^-----^-----^---|
-15--15--15--15--15--15--15--15--14-15-14-15-14-15-14-15-14-15-14-15-14-15-14-15-|
---------------------------------------------------------------------------------|
---------------------------------------------------------------------------------|
---------------------------------------------------------------------------------|
   |   |   |   |   |   |   |   |





1
---------------------------------------------------------------------------------|
---------------------------------------------------------------------------------|
----------------------------------10-10-10-9-9-9-7-7-7--7------------------------|
-----------------------------------x--x--x-x-x-x-x-x-x--x------------------------|
-----------------------------------8--8--8\7-7-7\5-5-5--5------------------------|
-/8-------7-8-7--1----------1-3-0------------------------------------------------|

2
---------------------------------------------------------------------------------|
-----------------------------------^-----^-----^-----^-----^-----^-----^-----^---|
-15--15--15--15--15--15--15--15--14-15-14-15-14-15-14-15-14-15-14-15-14-15-14-15-|
---------------------------------------------------------------------------------|
---------------------------------------------------------------------------------|
---------------------------------------------------------------------------------|
   |   |   |   |   |   |   |   |




1
------------------------------------------------|
------------------------------------------------|
------------------------------------------------|
-----------------__-----------------------------|
----------------/  \----------------------------|
-/8----------7-8/10\8-7-------7-8-12--10--8--7--|

2
------------------------------------------------|
------------------------------------------------|
-15--15--15--15--15--15--15--15-----------------|
------------------------------------------------|
----------------------------------5--7--8--7----|
------------------------------------------------|
   |   |   |   |   |   |   |   |







0:44


--------------------------------------------------------------------|
--------------------------------------------------------------------|
--------------------------------------------------------------------|
--------------------------------------------------------------------|
------------8---------------8----------5----------------------------|
-8-8-8--8-8-8\---8-8-8--8-8-8\---6-5-6---6-5-3-5-8-7-6-5-4-3-1-1-0--|
 * * *  * *      * * *  * *



------------------------------------------------------------|
------------------------------------------------------------|
---------------------7-5-5-8----------------------5-7-7-5---|
--^---------^--------x-x-x-x---^---------^--------x-x-x-x---|
-1-0-0--0--1-0-0--0--5\3-3/6--1-0-0--0--1-0-0--0--3/5-5\3---|
-1-0-0--0--1-0-0--0-----------1-0-0--0--1-0-0--0------------|
      |  |      |  |               |  |      |  |

------------------------------------------------------------|
------------------------------------------------------------|
---------------------7-5-5-8----------------------5-7-7-5---|
--^---------^--------x-x-x-x---^---------^--------x-x-x-x---|
-1-0-0--0--1-0-0--0--5\3-3/6--1-0-0--0--1-0-0--0--3/5-5\3---|
-1-0-0--0--1-0-0--0-----------1-0-0--0--1-0-0--0------------|
      |  |      |  |               |  |      |  |




1:10


----------------------------------------------------------------|
----------------------------------------------------------------|
------------------------7-5-5-8------------------------5-7-7-5--|
--^---------------------x-x-x-x---^--------------------x-x-x-x--|
-1-0-0--0---------------5\3-3/6--1-0-0--0--------------3/5-5\3--|
-1-0-0--0--/8-7~-0-1-3-----------1-0-0--0--/8-7~-0-1-3----------|
      |  |                            |  |

----------------------------------------------------------------|
----------------------------------------------------------------|
------------------------7-5-5-8------------------------5-7-7-5--|
--^---------------------x-x-x-x---^--------------------x-x-x-x--|
-1-0-0--0---------------5\3-3/6--1-0-0--0--------------3/5-5\3--|
-1-0-0--0--/8-7~-0-1-3-----------1-0-0--0--/8-7~-0-1-3----------|
      |  |                            |  |




1:20


1
-----------------------------------------------------------|
-----------------------------------------------------------|
--15-----14-15-14-8-----8-10-7----10-10--9--9---7-7--7--7--|
---x------x--x--x-x-----x-x--x-----x--x--x--x---x-x--x--x--|
-/13-----12/13-12-6-----6/8--5-----8--8--7--7---5-5--5--5--|
-----------------------------------------------------------|
                                       \     \
2
-----------------------------------------------------------|
-----------------------------------------------------------|
--15-----14-15-14-8-----8-10-7-----------------------------|
---x------x--x--x-x-----x-x--x----12-12-10-10---7-7--7--7--|
-/13-----12/13-12-6-----6/8--5-----8--8--7--7---5-5--5--5--|
-----------------------------------------------------------|
                                       \     \

1
------------------__--------------------------------------------|
-----------------/  \-------------------------------------------|
--15-----14-15-15-17-15-12---10-12-7---10-10--9--9---7-7--7--7--|
---x------x--x--x--x--x--x----x--x-x----x--x--x--x---x-x--x--x--|
-/13-----12/13-13/15\13-10----8/10-5----8--8--7--7---5-5--5--5--|
----------------------------------------------------------------|
                                            \     \
2
------------------__---------------------------------------------|
-----------------/  \--------------------------------------------|
--15-----14-15-15-17-15-12----10-12-7----------------------------|
---x------x--x--x--x--x--x-----x--x-x---12-12-10-10---7-7--7--7--|
-/13-----12/13-13-15\13-10-----8/10-5----8--8--7--7---5-5--5--5--|
-----------------------------------------------------------------|
                                             \     \





1
-----------------------------------------------------------|
-----------------------------------------------------------|
--15-----14-15-14-8-----8-10-7----10-10--9--9---7-7--7--7--|
---x------x--x--x-x-----x-x--x-----x--x--x--x---x-x--x--x--|
-/13-----12/13-12-6-----6/8--5-----8--8--7--7---5-5--5--5--|
-----------------------------------------------------------|
                                       \     \
2
-----------------------------------------------------------|
-----------------------------------------------------------|
--15-----14-15-14-8-----8-10-7-----------------------------|
---x------x--x--x-x-----x-x--x----12-12-10-10---7-7--7--7--|
-/13-----12/13-12-6-----6/8--5-----8--8--7--7---5-5--5--5--|
-----------------------------------------------------------|
                                       \     \

1
------------------__--------------------------------------------|
-----------------/  \-------------------------------------------|
--15-----14-15-15-17-15-12---10-12-7---10-10--9--9---7-7--7--7--|
---x------x--x--x--x--x--x----x--x-x----x--x--x--x---x-x--x--x--|
-/13-----12/13-13/15\13-10----8/10-5----8--8--7--7---5-5--5--5--|
----------------------------------------------------------------|
                                            \     \
2
------------------__---------------------------------------------|
-----------------/  \--------------------------------------------|
--15-----14-15-15-17-15-12----10-12-7----------------------------|
---x------x--x--x--x--x--x-----x--x-x---12-12-10-10---7-7--7--7--|
-/13-----12/13-13-15\13-10-----8/10-5----8--8--7--7---5-5--5--5--|
-----------------------------------------------------------------|
                                             \     \







1:44


---------------------------------|
---------------------------------|
------------------------7-5-5-8--|
------------------------x-x-x-x--|
-1-0-0--0---------------5\3-3/6--|
-1-0-0--0--/8-7~-0-1-3-----------|
      |  |                          


---------------------------------------------------------------|
---------------------------------------------------------------|
-----------------------5-7-7-5-----------------------7-5-5-8---|
--^----------^---------x-x-x-x---^---------^---------x-x-x-x---|
-1-0-0--0---1-0-0--0---3/5-5\3--1-0-0--0--1-0-0--0---5\3-3/6---|
-1-0-0--0---1-0-0--0------------1-0-0--0--1-0-0--0-------------|
      |  |       |  |                |  |      |  |


---------------------------------------------------------------|
---------------------------------------------------------------|
-----------------------5-7-7-5------------------------7-5-5-8--|
--^----------^---------x-x-x-x---^--------------------x-x-x-x--|
-1-0-0--0---1-0-0--0---3/5-5\3--1-0-0--0--------------5\3-3/6--|
-1-0-0--0---1-0-0--0------------1-0-0--0--/8-7~-0-1-3----------|
      |  |       |  |                |  |    


----------------------------------------------------------------|
----------------------------------------------------------------|
------------------------5-7-7-5-------------------------7-5-5-8-|
--^---------------------x-x-x-x---^---------------------x-x-x-x-|
-1-0-0--0---------------3/5-5\3--1-0-0--0---------------5\3-3/6-|
-1-0-0--0--/8-7~-0-1-3-----------1-0-0--0--/8-7~-0-1-3----------|
      |  |                            |  |
                                      

---------------------------------|
---------------------------------|
------------------------5-7-7-5--|
--^---------------------x-x-x-x--|
-1-0-0--0---------------3/5-5\3--|
-1-0-0--0--/8-7~-0-1-3-----------|
      |  |          




2:08




1
-----------------------------------------------------------|
-----------------------------------------------------------|
--15-----14-15-14-8-----8-10-7----10-10--9--9---7-7--7--7--|
---x------x--x--x-x-----x-x--x-----x--x--x--x---x-x--x--x--|
-/13-----12/13-12-6-----6/8--5-----8--8--7--7---5-5--5--5--|
-----------------------------------------------------------|
                                       \     \
2
-----------------------------------------------------------|
-----------------------------------------------------------|
--15-----14-15-14-8-----8-10-7-----------------------------|
---x------x--x--x-x-----x-x--x----12-12-10-10---7-7--7--7--|
-/13-----12/13-12-6-----6/8--5-----8--8--7--7---5-5--5--5--|
-----------------------------------------------------------|
                                       \     \

1
------------------__--------------------------------------------|
-----------------/  \-------------------------------------------|
--15-----14-15-15-17-15-12---10-12-7---10-10--9--9---7-7--7--7--|
---x------x--x--x--x--x--x----x--x-x----x--x--x--x---x-x--x--x--|
-/13-----12/13-13/15\13-10----8/10-5----8--8--7--7---5-5--5--5--|
----------------------------------------------------------------|
                                            \     \
2
------------------__---------------------------------------------|
-----------------/  \--------------------------------------------|
--15-----14-15-15-17-15-12----10-12-7----------------------------|
---x------x--x--x--x--x--x-----x--x-x---12-12-10-10---7-7--7--7--|
-/13-----12/13-13-15\13-10-----8/10-5----8--8--7--7---5-5--5--5--|
-----------------------------------------------------------------|
                                             \     \





2:30




------------------------------------------------------------|
------------------------------------------------------------|
------------------------------------------------------------|
------------------------------------------------------------|
-------5----------------------------------------------------|
-6-5-6---6-5-3-5-8-7-6-5-4-3-1-1-0---5-5-4-4---0---5-5-7-4--|


------------------------------------------------------------|
------------------------------------------------------------|
------------------------------------------------------------|
------------------------------------------------------------|
-------5----------------------------------------------------|
-6-5-6---6-5-3-5-8-7-6-5-4-3-1-1-0---5-5-4-4---0---5-5-7-4--|






2:43

1
----------------------------------------------------------------|
----------------------------------------------------------------|
------------------------7-5-5-8------------------------5-7-7-5--|
------------------------x-x-x-x------------------------x-x-x-x--|
-1-0-0--0---------------5\3-3/6--1-0-0--0--------------3/5-5\3--|
-1-0-0--0--/8-7~-0-1-3-----------1-0-0--0--/8-7~-0-1-3----------|
      |  |                            |  |
2
-------------------------------------H--------------------------|
-----------------------------------///--------------------------|
-----------------------------------[2]-/------------------------|
----------------------------------------------------------------|
----------------------------------------------------------------|
----------------------------------------------------------------|

1
----------------------------------------------------------------|
----------------------------------------------------------------|
------------------------7-5-5-8------------------------5-7-7-5--|
------------------------x-x-x-x------------------------x-x-x-x--|
-1-0-0--0---------------5\3-3/6--1-0-0--0--------------3/5-5\3--|
-1-0-0--0--/8-7~-0-1-3-----------1-0-0--0--/8-7~-0-1-3----------|
      |  |                            |  |
2
----------------------------------------------------------------|
-///--------///----------------///------///-///-///-///---------|
/15----------14----------------17--------15--17--14--15---------|
----------------------------------------------------------------|
----------------------------------------------------------------|
----------------------------------------------------------------|


1
----------------------------------------------------------------|
----------------------------------------------------------------|
------------------------7-5-5-8------------------------5-7-7-5--|
------------------------x-x-x-x------------------------x-x-x-x--|
-1-0-0--0---------------5\3-3/6--1-0-0--0--------------3/5-5\3--|
-1-0-0--0--/8-7~-0-1-3-----------1-0-0--0--/8-7~-0-1-3----------|
      |  |                            |  |
2
----------------------------------------------------------------|
-///--------///-------------///-------------///-----------------|
-7-----------9---------------10-------------12------[12]~~---\--|
----------------------------------------------------------------|
----------------------------------------------------------------|
----------------------------------------------------------------|








3:00


SOLO __________________________       _____
    /                          \     /     \      __________
--10-11-10-11-13-11-10-11-10-------10-11-10------/          \-----------|
/----------------------------13-11----------13-10-11-10------------^----|
--------------------------------------------------------12-10----10-12--|
--------------------------------------------------------------13--------|
------------------------------------------------------------------------|
------------------------------------------------------------------------|

    __________
---/          \-----------------------------------------------------------------|
-10-11-10------------_____-------_____--------15--15/17---17\15--15----13/15-15-|
----------12-10-----/     \-----/     \-----------------------------------------|
---------------13-12-13-12----12-13-15-13-12----12-----14------12---10----------|
---------------------------13---------------------------------------------------|
--------------------------------------------------------------------------------|

  
            ________       _______________      _____       ______________________
           /        \     /               \    /     \     /                      \    ^
10------10-12-13-12-10-12-13-15-13-12--------12-13-15-12/17-15-13-15-13--------------13-15-|
--13--13-----------------------------15-13-15--------------------------17-15-13-15-17------|
----12-------------------------------------------------------------------------------------|
-------------------------------------------------------------------------------------------|
-------------------------------------------------------------------------------------------|
-------------------------------------------------------------------------------------------|
                            _____
                           /     \
17/18-17--15-15\13-13\12-12-13-12-10-------------|
-------------------------------------13/15-15~---|
-------------------------------------------------|
-------------------------------------------------|
-------------------------------------------------|
-------------------------------------------------|


rythm during solo
-----------------------------------------------------|
-----------------------------------------------------|
-------------------------10-10-10-9--9-9-7--7-7--7---|
--------------------------x--x--x-x--x-x-x--x-x--x---|
--8----7-8-7--1----1-3-0--8--8--8\7--7-7\5--5-5--5---|
-/8----7-8-7--1----1-3-0-----------------------------|


----------------------------------------------------------|
----------------------------------------------------------|
------------------------------10-10-10-12-12-12-7-7-7--7--|
-------------------------------x--x--x--x--x--x-x-x-x--x--|
--8----7-8-8-10-8-7----5-7-0---8--8--8/10-10-10\5-5-5--5--|
-/8----7-8-8/10\8-7----5-7-0------------------------------|







3:13


1
-----------------------------------------------------|
-----------------------------------------------------|
-------------------------10-10-10-9--9-9-7--7-7--7---|
--------------------------x--x--x-x--x-x-x--x-x--x---|
--8----7-8-7--1----1-3-0--8--8--8\7--7-7\5--5-5--5---|
-/8----7-8-7--1----1-3-0-----------------------------|

2
-----------------------------------------------------|
--------^-----------^--------------------------------|
-/15--14-15-14-8---8-10-7-------------------------5/-|
-----------------------------------------------------|
-----------------------------------------------------|
-----------------------------------------------------|


1
----------------------------------------------------------|
----------------------------------------------------------|
------------------------------10-10-10-12-12-12-7-7-7--7--|
-------------------------------x--x--x--x--x--x-x-x-x--x--|
--8----7-8-8-10-8-7----5-7-0---8--8--8/10-10-10\5-5-5--5--|
-/8----7-8-8/10\8-7----5-7-0------------------------------|

2
----------------------------------------------------------|
----------------------------------------------------------|
-15---14-15-15/17\15-12~-----14/15-14---------------------|
----------------------------------------------------------|
----------------------------------------------------------|
----------------------------------------------------------|




3:25

1
-----------------------------------------------------|
-----------------------------------------------------|
-------------------------10-10-10-9--9-9-7--7-7--7---|
--------------------------x--x--x-x--x-x-x--x-x--x---|
--8----7-8-7--1----1-3-0--8--8--8\7--7-7\5--5-5--5---|
-/8----7-8-7--1----1-3-0-----------------------------|

2
-----------------------------------------------------|
-----------------------------------------------------|
///--/////////----///----------------///--///--///---|
-8----7-8-10-------12-----------------15---14--12----|
-----------------------------------------------------|
-----------------------------------------------------|


1
----------------------------------------------------------------|
----------------------------------------------------------------|
------------------------------10-10-10-12-12-12-14-14-14-15-14--|
-------------------------------x--x--x--x--x--x--x--x--x--x--x--|
--8----7-8-8-10-8-7----5-7-0---8--8--8/10-10-10/12-12-12/13-12--|
-/8----7-8-8/10\8-7----5-7-0------------------------------------|

2                                        tr~~~
----------------------------------------1718--------------------------|
-///-///-------///----------------------------------------------------|
-----------///-14-----------14~~-------------14-17-15-14-15-14--------|
-17---14---15-------------------------------------------------17-\----|
----------------------------------------------------------------------|
----------------------------------------------------------------------|





3:36




----------------------------------------------------------------|
----------------------------------------------------------------|
------------------------7-5-5-8------------------------5-7-7-5--|
--^---------------------x-x-x-x---^--------------------x-x-x-x--|
-1-0-0--0---------------5\3-3/6--1-0-0--0--------------3/5-5\3--|
-1-0-0--0--/8-7~-0-1-3-----------1-0-0--0--/8-7~-0-1-3----------|
      |  |                            |  |



---------------------------------------------------------------|
---------------------------------------------------------------|
-----------------------7-5-5-8------------------------5-7-7-5--|
--^----------^---------x-x-x-x---^----------^---------x-x-x-x--|
-1-0-0--0---1-0-0--0---5\3-3/6--1-0-0--0---1-0-0--0---3/5-5\3--|
-1-0-0--0---1-0-0--0------------1-0-0--0---1-0-0--0------------|
    
  
---------------------------------------------------------------|
---------------------------------------------------------------|
-----------------------7-5-5-8------------------------5-7-7-5--|
--^----------^---------x-x-x-x---^----------^---------x-x-x-x--|
-1-0-0--0---1-0-0--0---5\3-3/6--1-0-0--0---1-0-0--0---3/5-5\3--|
-1-0-0--0---1-0-0--0------------1-0-0--0---1-0-0--0------------|
      




------------------------------------------------------------------|
------------------------------------------------------------------|
-------------------------7-5-5-8-------------------------5-7-7-5--|
--^-----------^----------x-x-x-x--^-----------^----------x-x-x-x--|
-1-0-0-0-0-0-1-0-0-0-0-0-5\3-3/6-1-0-0-0-0-0-1-0-0-0-0-0-3/5-5\3--|
-1-0-0-0-0-0-1-0-0-0-0-0---------1-0-0-0-0-0-1-0-0-0-0-0----------|

     * * * *     * * * *             * * * *     * * * * 

------------------------------------------------------------------|
------------------------------------------------------------------|
-------------------------7-5-5-8-------------------------5-7-7-5--|
--^-----------^----------x-x-x-x--^-----------^----------x-x-x-x--|
-1-0-0-0-0-0-1-0-0-0-0-0-5\3-3/6-1-0-0-0-0-0-1-0-0-0-0-0-3/5-5\3--|
-1-0-0-0-0-0-1-0-0-0-0-0---------1-0-0-0-0-0-1-0-0-0-0-0----------|

     * * * *     * * * *             * * * *     * * * * 







            
            
Suggest correction
Creating personal tab
Creating personal tab
You can edit any tab online and save it as your Personal.

You can edit, replace or remove any tab part or add personal notes – all changes will be seen only by you.

Personal tabs can be accessed anytime from any device, even offline.
Learn more »
comments
print report bad tab
1 comment total.
0 reply
w0rker 10 Dec 25, 2014 03:39 AM

I have been trying to win over "the solo section" for weeks now and I find it off. :(

guest
You may want to rate the tab now too:
select rating
Wanna post a correction for this tab? Suggest correction