Oops, an error
Loading. Please wait.

The Virus Of Life tab

version 2
version 2

Whole song

Interactive

4,550 views 1 this week
7 commentsread comments
1 2 3 4 5
x 12
add to favorites
×
Save as Personal and add changes to this tab that will be seen only by you. Learn more ›
×
You can save this tab as Personal to edit and correct it or add notes. All changes will be seen only by you. Learn more »
launch autoscroll
font size
0
reset
how to read this tab
guitar tuner
edit
Autoscroll
slow
fast
+/-
esc
set tempo
stop
Author
-------------------------------------------------------------------------------
                             The Virus of Life - Slipknot
-------------------------------------------------------------------------------
Tabbed by:thezohan
Email:

Tuning:Drop B
 I finally finished figuring out the whole entire album.I hope you like this tab 
becausethe others were way off. Oh yeah, and a * means pinch harmonic.

Intro
C#|----------------------------------------------------------------------------|
G#|----------------------------------------------------------------------------|
E |-12~~~~~~~~~~~~~~~~~~~~~~~~~~~~~~~~~~~~~~~~~~-------------------------------|
B |----------------------------------------------------------------------------|
F#|----------------------------------------------------------------------------|
B |----------------------------------------------------------------------------|

Verse Riff(Jim)
C#|----------------------------------------------------------------------------|
G#|----------------------------------------------------------------------------|
E |----------------------------------------------------------------------------|
B |----------------------------------------------------------------------------|
F#|----------------------------------------------------------------------------|
B |-111-1-1-111-1-1-111-1-1-111-1-1-333-0-0-000-0-0-000-0-0-000-0-0------------|
    xxx x x xxx x x xxx x x xxx x x xxx x x xxx x x xxx x x xxx x x

Verse Riff(Mick)
C#|---------------------------------------------------------------------------|
G#|------------------------------------10-10-8-7-8-10-11-11-10-8-7------------|
E |-8-8-8-8-11-11-11-11-8-8-8-8-7-7-7-7---------------------------------------|
B |---------------------------------------------------------------------------|
F#|---------------------------------------------------------------------------|
B |---------------------------------------------------------------------------|
Bridge
C#|---------------------------------------------------------------------------|
G#|---------------------------------------------------------------------------|
E |---------------------------------------------------------------------------|
B |---------------3~---------------3~---------------3~---------------3~-------|
F#|-2-1-0-----0-0-3~-2-1-0-----0-0-3~-2-1-0-----0-0-3~-2-1-0-----0-0-3~-------|
B |-2-1-0-3b*-0-0-3~-2-1-0-3b*-0-0-3~-2-1-0-3b*-0-0-3~-2-1-0-3b*-0-0-3~-------|
    x x x            x x x            x x x            x x x     x x x

Other Riff(This is actually Tremolo Picked, I just couldn't fit it)
C#|-11------12------10-----11-----12----12b13b14b15b16b17b18\\\\\\------------|
G#|---------------------------------------------------------------------------|
E |---------------------------------------------------------------------------|
B |---------------------------------------------------------------------------|
F#|---------------------------------------------------------------------------|
B |---------------------------------------------------------------------------|
Chorus
C#|---------------------------------------------------------------------------|
G#|---------------------------------------------------------------------------|
E |---------------------------7-6-5-------------------------------------------|
B |-0-2-1-0-3-3-0-4-4-5-1-1-1-------------------------------------------------|
F#|-0-2-1-0-3-3-0-4-4-5-1-1-1-5-4-3-------------------------------------------|
B |-0-2-1-0-3-3-0-4-4-5-1-1-1-------------------------------------------------|

Hope you like it! Please comment/rate! 


| /  slide up
| \  slide down
| h  hammer-on
| p  pull-off
| ~  vibrato
| +  harmonic
| x  Mute note
===============================================================================

            
            
Suggest correction
Creating personal tab
Creating personal tab
You can edit any tab online and save it as your Personal.

You can edit, replace or remove any tab part or add personal notes – all changes will be seen only by you.

Personal tabs can be accessed anytime from any device, even offline.
Learn more »
comments
print report bad tab
7 comments total. Showing first comments.
0 reply
thezohan 374 Apr 07, 2009 11:41 AM

can somebody please comment/rate my tab???????!!!!!!!!!!!!!!!!?????

0 reply
thezohan 374 Apr 07, 2009 11:42 AM

sorry I was to lazy to fix the tuning. It is Drop B. B,F#,B,E,G#,C#

+1 reply
Kosh H 101 May 07, 2009 01:59 PM

Much better than the other one...5 stars.

guest
You may want to rate the tab now too:
select rating
Wanna post a correction for this tab? Suggest correction