Oops, an error
Loading. Please wait.

Till We Die bass

version 1
version 1

Whole song

Interactive

9,692 views 1 this week
2 commentsread comments
1 2 3 4 5
x 3
add to favorites
×
Save as Personal and add changes to this tab that will be seen only by you. Learn more ›
×
You can save this tab as Personal to edit and correct it or add notes. All changes will be seen only by you. Learn more »
launch autoscroll
font size
0
reset
guitar tuner
edit
Autoscroll
slow
fast
+/-
esc
set tempo
stop
Difficulty
G|---------------------------------|[3x]
D|---------------------------------|
A|---------------------------------|
E|-22-22-22-22-00-00-00-00---------|



G|---------------------------------|
D|---------------------------------|
A|---------------------------------|
E|--2-----7-5-4-5-4-2-0----2-0-2---|

G|---------------------------------|[3x]
D|---------------------------------|
A|---------------------------------|
E|----7-5-4-5-4-2-0----2-0-2-------|




G|---------------------------------|[4x]
D|---------------------------------|
A|---------------------------------|
E|-22-22-22-22-00-00-00-00---------|



G|---------------------------------|
D|---------------------------------|
A|---------------------------------|
E|--2-----7-5-4-5-4-2-0----2-0-2---|

G|---------------------------------|
D|---------------------------------|
A|---------------------------------|
E|----7-5-4-5-4-2-0----2-0-2-------|




G|---------------------------------|[4x]
D|---------------------------------|
A|---------------------------------|
E|-22-22-22-22-00-00-00-3-2-1------|





G|---------------------------------|
D|---------------------------------|
A|---------------------------------|
E|--2-----7-5-4-5-4-2-0----2-0-2---|

G|---------------------------------|[7x]
D|---------------------------------|
A|---------------------------------|
E|----7-5-4-5-4-2-0----2-0-2-------|


G|---------------------------------|[2x]
D|---------------------------------|
A|---------------------------------|
E|-22-22-22-22-00-00-00-3-2-1------|




G|---------------------------------|
D|---------------------------------|
A|---------------------------------|
E|--2-----7-5-4-5-4-2-0----2-0-2---|

G|---------------------------------|[23x]
D|---------------------------------|
A|---------------------------------|
E|----7-5-4-5-4-2-0----2-0-2-------|

end!

            
            
Suggest correction
Creating personal tab
Creating personal tab
You can edit any tab online and save it as your Personal.

You can edit, replace or remove any tab part or add personal notes – all changes will be seen only by you.

Personal tabs can be accessed anytime from any device, even offline.
Learn more »
Give kudos to tab author, rate the tab!
1 2 3 4 5
comments
print report bad tab
2 comments total.
0 reply
cdsteroid23 30 Sep 29, 2009 08:17 PM

This tablature is well made but I think I need more.
sorry men.

0 reply
reagangalea2002 12 Aug 14, 2017 11:16 PM

At the start, is it 22 as in twenty-two or is it just 2 really quickly?

guest
Wanna post a correction for this tab? Suggest correction