Oops, an error
Loading. Please wait.

Vermilion Part 2 bass

version 3
version 3

Whole song

Interactive

172 views 1 this week
no commentswrite comment
1 2 3 4 5
3 more votes to show rating
add to favorites
×
Save as Personal and add changes to this tab that will be seen only by you. Learn more ›
×
You can save this tab as Personal to edit and correct it or add notes. All changes will be seen only by you. Learn more »
launch autoscroll
font size
0
reset
guitar tuner
edit
Autoscroll
slow
fast
+/-
esc
set tempo
stop
Author
Difficulty
-------------------------------------------------------------------------------
                             Vermilion Part 2 - Slipknot
-------------------------------------------------------------------------------
Tabbed by: Andu Needle
E-mail: sulfur_in_my_lungs@yahoo.com

Intro/Verse:

G|--------------------------------------------------------------------------------|
D|--------------------------------------------------------------------------------|
A|-------7~-6~--676-2~--2\1~-1~-111-----------------------------------------------|
E|-4~-6~-----------4--------------------------------------------------------------|(x6)

"I don't know what to do":

G|--------------------------------------------------------------------------------|
D|--------------------------------------------------------------------------------|
A|-7~-77~-77~-77~-77~-77~-77~-77~-7-----------------------------------------------|
E|----------------------------------7~-7777-7~-7777-7~-77~-77~-77~-77~------------|

Verse 2 is like the first one!
"I don't know what to do" 2 is like the first one!

Chorus:

G|-------------------------------------------------------------------------------|
D|-------------------------------------------------------------------------------|
A|-5-5-5-------2-2-2-------------------------------------------------------------|
E|-------2-2-2-------0-0-0-------------------------------------------------------|(x3)

The 4th time is tied up with the bridge!

G|-------------------------------------------------------------------------------|
D|-------------------------------------------------------------------------------|
A|-5-5-5-------2-2-2-------------------------------------------------------------|
E|-------2-2-2-------------------------------------------------------------------|

After those 3 Bs you go into Bridge:

Bridge:

G|-------------------------------------------------------------------------------|
D|-------------------------------------------------------------------------------|
A|-2-4-5-------------4-4-4-2-1-1-2-2-2-------------------------------------------|
E|-------3-3-3-5-5-5-------------------------------------------------------------|

G|-------------------------------------------------------------------------------|
D|-------------------------------------------------------------------------------|
A|-2-2-2-------2-2-2-------5-5-5-------------------------------------------------|
E|-------0-0-0-------2-2-2-------------------------------------------------------|

G|-------------------------------------------------------------------------------|
D|-------------------------------------------------------------------------------|
A|-2-2-2-------2-2-2-------5-5-5-------------------------------------------------|
E|-------0-0-0-------2-2-2-------------------------------------------------------|

The last 3 Ds are the first 3 ones from the last chorus!

Last chorus:

G|-------------------------------------------------------------------------------|
D|-------------------------------------------------------------------------------|
A|-5-5-5-------2-2-2-------------------------------------------------------------|
E|-------2-2-2-------0-0-0-------------------------------------------------------|(x3)

G|-------------------------------------------------------------------------------|
D|-------------------------------------------------------------------------------|
A|-5-5-5-------------------------------------------------------------------------|
E|-------2-2-2-------------------------------------------------------------------|

Outro:

G|-------------------------------------------------------------------------------|
D|-------------------------------------------------------------------------------|
A|-------7~-6~--676-2~--2\1~-1~-111----------------------------------------------|
E|-4~-6~-----------4-------------------------------------------------------------|(x6)

            
            
Suggest correction
Creating personal tab
Creating personal tab
You can edit any tab online and save it as your Personal.

You can edit, replace or remove any tab part or add personal notes – all changes will be seen only by you.

Personal tabs can be accessed anytime from any device, even offline.
Learn more »
Give kudos to tab author, rate the tab!
1 2 3 4 5
comments
print report bad tab
guest
You may want to rate the tab now too:
select rating
Wanna post a correction for this tab? Suggest correction