Oops, an error
Loading. Please wait.

Vermilion Part 2 tab

version 11
version 11

Whole song

Interactive

319 views 3 this week
no commentswrite comment
1 2 3 4 5
3 more votes to show rating
add to favorites
×
Save as Personal and add changes to this tab that will be seen only by you. Learn more ›
×
You can save this tab as Personal to edit and correct it or add notes. All changes will be seen only by you. Learn more »
launch autoscroll
font size
0
reset
how to read this tab
guitar tuner
edit
Autoscroll
slow
fast
+/-
esc
set tempo
stop
About this tab version
Based on Live single guitar version of song performed by band. No other tab has the right parts. Was this info helpful? Yes No
Title: Vermillion Pt. 2
tabbed by HavoCentral
Artist: Slipknot
Album: Subliminal Verses Vol. 3
Tempo = 123
Nylon Guitar

This is how I learned to play the song after watching several covers and reading several tabs and 
realizing they were not accurate.
This tab is based off a video of corey taylor and jim root playing this song live with one guitar.

The into should be 100% correct.

The pre-chorus - Jim plays it as a bar chord, but I prefere the open chord more.

Chorus - This is how it is played on one guitar by Jim Root. He plays the lower base notes, 
I play the higher ones because they are simpler to do while performing. 
He also picks instead of strumming the other part.

Bridge -  Again, based on the video with a few minor changes.

To learn strumming patters listen to song or youtube vermillion live jim root

Intro/Verse/Outro                                                             
C#|----------------------------|----------------------------|
G#|----------------------------|----------------------------|
E |----------------------------|----------------------------|
B |--9-----9--9-----9--9-------|--9--9-----9--9-------------|
F#|--9-----9--9-----9--10------|--10-9-----9--9--10-9-------|
B |--9-----9--11----11-9-------|--9--9-----9--9-------------|

                                                          
----------------------------|----------------------------|
----------------------------|----------------------------|
--7--------7--------7--7----|--7--7-----7--------7--7----|
--x--------x--------x--x----|--x--x-----x--------x--x----|
--5--------5--------5--5----|--5--4-----4--------4--4----|
--0--------0--------0--0----|--0--0-----0--------0--0----|

Pre-Chorus

----------------------------|----------------------------|
--1-----1--1-----1--1-------|--1-----1--1-----1--1-------|
--0-----0--0-----0--0-------|--0-----0--0-----0--0-------|
--2-----2--2-----2--2-------|--2-----2--2-----2--2-------|
--3-----3--3-----3--3-------|--3-----3--3-----3--3-------|
----------------------------|----------------------------|

----------------------------|----------------------------|
--1-----1--1-----1--1-------|----------------------------|
--0-----0--0-----0--0-------|--7-----7--7-----7--7-------|
--2-----2--2-----2--2-------|--x-----x--x-----x--x-------|
--3-----3--3-----3--3-------|--5-----5--6-----6--5-------|
----------------------------|--0-----0--0-----0--0-------|
                                                         
----------------------------|----------------------------|
----------------------------|----------------------------|
--7--7-----7--7--7--7--7----|--7-----7--7-----7--7-------|
--x--x-----x--x--x--x--x----|--x-----x--x-----x--x-------|
--5--5-----5--5--5--5--5----|--5-----5--6-----6--5-------|
--0--7-----7--6--6--6--6----|--0-----0--0-----0--0-------|

                             
----------------------------|
----------------------------|
--7--7-----7--7--7--7--7----|
--x--x-----x--x--x--x--x----|
--5--5-----5--5--5--5--5----|
--0--7-----7--6--6--6--6----|

Chorus 3 and 1/2 times

        ^  v  ^  v             ^  v  ^  v     
--------0--0--0--0----|--------0--0--0--0----|
--------6--6--6--6----|--------6--6--6--6----|
--------7--7--7--7----|--------7--7--7--7----|
--8-------------------|--7-------------------|
----------------------|----------------------|
--8-------------------|--7-------------------|


        ^  v  ^  v             ^  v  ^  v      
--------0--0--0--0----|--------0--0--0--0----|
--------6--6--6--6----|--------6--6--6--6----|
--------7--7--7--7----|--------7--7--7--7----|
--0-------------------|----------------------|
----------------------|--8-------------------|
--0-------------------|--3-------------------|

Bridge- Transposed from strings to guitar based on live video of jim root playing it.

----------------------|-------------|----------------------|
----------------------|-------------|----------------------|
--7-----7--7--7--7----|--7--9--10---|----------------------|
--x-----x--x--x--x----|--x--x--x----|--10----10-10-10-10---|
--5-----5--5--5--5----|--5--7--8----|--8-----8--8--8--8----|
--0-----0--0--0--0----|--0--0--0----|--8-----8--8--8--8----|


----------------------|----------------------|-------------|
----------------------|----------------------|-------------|
----------------------|----------------------|--7--6-------|
--10----10-10-10-10---|--7-----7--7--7--7----|--8--7-------|
--8-----8--8--8--8----|--5-----5--5--5--5----|--8--7-------|
--8-----8--8--8--8----|--5-----5--5--5--5----|-------------|

                        A catch in my           Throat          

----------------------|----------------------|--1-----1--1--1--1----|
----------------------|----------------------|--3-----3--3--3--3----|
----------------------|----------------------|--2-----2--2--2--2----|
--0-----0--0--0--0----|--0-----0--0--0--0----|--0-----0--0--0--0----|
--0-----0--0--0--0----|--0-----0--0--0--0----|----------------------|
--0-----0--0--0--0----|--0-----0--0--0--0----|----------------------|

Choke                   Torn    into            pieces          i                       

--1-----1--1--1--1----|----------------------|--0-----0--0--0--0----|
--3-----3--3--3--3----|--3-----3--3--3--3----|--1-----1--1--1--1----|
--2-----2--2--2--2----|--3-----3--3--3--3----|--2-----2--2--2--2----|
--0-----0--0--0--0----|--3-----3--3--3--3----|--2-----2--2--2--2----|
----------------------|--1-----1--1--1--1----|--0-----0--0--0--0----|
----------------------|----------------------|----------------------|

Wont

--1-----1--1--1--1----|--1-----1--1--1--1----|----------------------|
--3-----3--3--3--3----|--3-----3--3--3--3----|--3-----3--3--3--3----|
--2-----2--2--2--2----|--2-----2--2--2--2----|--3-----3--3--3--3----|
--0-----0--0--0--0----|--0-----0--0--0--0----|--3-----3--3--3--3----|
----------------------|----------------------|--1-----1--1--1--1----|
----------------------|----------------------|----------------------|
                

--0-----0--0--0--0----|
--1-----1--1--1--1----|
--2-----2--2--2--2----|
--2-----2--2--2--2----|
--0-----0--0--0--0----|
----------------------|


Little flourish of the melody for the very end of the song
----------|--3--2----||
--0--2----|----------||
----------|----------||
----------|----------||
----------|----------||
----------|----------||

            
            
Suggest correction
Creating personal tab
Creating personal tab
You can edit any tab online and save it as your Personal.

You can edit, replace or remove any tab part or add personal notes – all changes will be seen only by you.

Personal tabs can be accessed anytime from any device, even offline.
Learn more »
Give kudos to tab author, rate the tab!
1 2 3 4 5
comments
print report bad tab
guest
You may want to rate the tab now too:
select rating
Wanna post a correction for this tab? Suggest correction