Oops, an error
Loading. Please wait.

Souvlaki Space Station tab

14,153 views 57 this week
2 commentsread comments
1 2 3 4 5
x 10
add to favorites
×
Save as Personal and add changes to this tab that will be seen only by you. Learn more ›
×
You can save this tab as Personal to edit and correct it or add notes. All changes will be seen only by you. Learn more »
launch autoscroll
font size
0
reset
how to read this tab
guitar tuner
edit
Autoscroll
slow
fast
+/-
esc
set tempo
stop
Difficulty
Beginning of the song goes like this and is repeated throughout the song:
e-----------------------|
B--9----12----7----12---|
G--9----12----7----12---|
D-----------------------|
A-----------------------|
E-----------------------|

The second part goes like this and is also repeated throughout the song:
e------------------------0-----------------------|
B------------------0-----------------------------|
G-------------5----------------5-----------------|
D--------7---------------------------------------|
A----0-------------------------------------------|
E------------------------------------------------|

e----------------0-------------------------------|
B-------------3----3-----------------------------|
G---------2-----------2--------------------------|
D-----0------------------------------------------|
A------------------------------------------------|
E------------------------------------------------|

Email me if see the need to correct something

            
            
Suggest correction
Creating personal tab
Creating personal tab
You can edit any tab online and save it as your Personal.

You can edit, replace or remove any tab part or add personal notes – all changes will be seen only by you.

Personal tabs can be accessed anytime from any device, even offline.
Learn more »
comments
print report bad tab
2 comments total.
0 reply
garygxx 70 Jul 19, 2008 03:12 PM

im pretty sure the main riff is:
e --------------------------------------------------------------
b -5-(5)-(5)-(5)-(5)-12-(12)-(12)-7-(7)-(7)-(7)-(7)-12-(12)-(12)
g -5-(5)-(5)-(5)-(5)-12-(12)-(12)-7-(7)-(7)-(7)-(7)-12-(12)-(12)
d --------------------------------------------------------------
a --------------------------------------------------------------
e --------------------------------------------------------------
with the notes in brackets being the ones played with delay

+4 reply
IsThereLoveInSp 111 May 08, 2009 07:45 PM

Both of these sound wrong to me. I think this is closer to the recording:

b-8--12--7--12--
g-9--12--7--12--

guest
Wanna post a correction for this tab? Suggest correction