Oops, an error
Loading. Please wait.

Sugar For The Pill intro tab

version 1
version 1

Intro

  • The intro tab for this song isn't here.

Whole song

2,167 views 39 this week
5 commentsread comments
1 2 3 4 5
x 7
add to favorites
×
Save as Personal and add changes to this tab that will be seen only by you. Learn more ›
×
You can save this tab as Personal to edit and correct it or add notes. All changes will be seen only by you. Learn more »
launch autoscroll
font size
0
reset
how to read this tab
guitar tuner
edit
Autoscroll
slow
fast
+/-
esc
set tempo
stop
About this tab version
The intro tab for this song isn't here. Was this info helpful? Yes No
The intro is simple, figured it out just hearing it. Any correction, tell me.

Easy intro in standard tuning. You can also use this for the verses.


[Intro]
e|-----------------------------------------------------|
B|-----5-5-5-5--7-7-7-7--8-8-8-8--12-12-12-12--5(hold)-| (x3) 
G|-----------------------------------------------------|
D|-----------------------------------------------------|
A|-----3-3-3-3--5-5-5-5--7-7-7-7--10-10-10-10--3-------|
E|-----------------------------------------------------|

            
            
Suggest correction
Creating personal tab
Creating personal tab
You can edit any tab online and save it as your Personal.

You can edit, replace or remove any tab part or add personal notes – all changes will be seen only by you.

Personal tabs can be accessed anytime from any device, even offline.
Learn more »
comments
print report bad tab
5 comments total. Showing first comments.
+2 reply
wubblyjuggly1 20 May 26, 2017 09:55 AM

Its heavy with delay and reverb too!

-1 reply
Weaban 102 Oct 15, 2017 07:49 AM

You missed the lower notes:
e|-----------------------------------------------------|
B|-----5-5-5-5--7-7-7-7--8-8-8-8--12-12-12-12--5(hold)-|
G|-----------------------------------------------------|
D|-----------------------------------------------------|
A|-----3-3-3-3--5-5-5-5--7-7-7-7--10-10-10-10--3-------|
E|-----------------------------------------------------|

0 reply
only.punk.rock.music 404 Oct 19, 2017 12:26 AM

Yeah, thank you so much man!

guest
You may want to rate the tab now too:
select rating
Wanna post a correction for this tab? Suggest correction