Oops, an error
Loading. Please wait.

Almost Grown bass

489 views 3 this week
no commentswrite comment
1 2 3 4 5
2 more votes to show rating
add to favorites
×
Save as Personal and add changes to this tab that will be seen only by you. Learn more ›
×
You can save this tab as Personal to edit and correct it or add notes. All changes will be seen only by you. Learn more »
launch autoscroll
font size
0
reset
guitar tuner
edit
Autoscroll
slow
fast
+/-
esc
set tempo
stop
Author
Almost Grown
The Small Faces
Written by Steve Marriott, Ian McLagan, Kenny Jones and Ronnie Lane; 
released as a B-side to "Hey Girl"

Intro:
G|------- ------- ------- -------|------- ------- ------- -------|
D|9-------9-------9-------9------|-------------------------------|
A|-------------------------------|-------------------------------|
E|-------------------------------|-------------------------------|



G|------- ------- ------- -------|------- ------- ------- -------|
D|9-------9-------9-------9------|-------------------------------|
A|-------------------------------|-------------------------------|
E|-------------------------------|-------------------------------|


Verse:
G|------- ------- ------- -------|------- ------- ------- -------|
D|--------5---------------5------|--------5----------------------|
A|7---------------7--------------|7-------------------7-------7--|
E|-------------------------------|----------------7--------------|



G|------- ------- ------- -------|------- ------- ------- -------|
D|--------5---------------5------|--------5----------------------|
A|7---------------7--------------|7-------------------7-------7--|
E|-------------------------------|----------------7--------------|



G|------- ------- ------- -------|------- ------- ------- -------|
D|--------5---------------5------|--------5----------------------|
A|7---------------7--------------|7-------------------7-------7--|
E|-------------------------------|----------------7--------------|



G|------- ------- ------- -------|------- ------- ------- -------|
D|--------5---------------5------|--------5----------------------|
A|7---------------7--------------|7-------------------7-------7--|
E|-------------------------------|----------------7--------------|



G|------- 7------ ------- 7------|------- 7------ ------- -------|
D|9---------------9--------------|9-------------------9-------9--|
A|-------------------------------|----------------9--------------|
E|-------------------------------|-------------------------------|



G|------- ------- ------- -------|------- ------- ------- -------|
D|-------------------------------|-------------------------------|
A|7------------------------------|-------------------------------|
E|-------------------------------|-------------------------------|


Verse:
G|------- ------- ------- -------|------- ------- ------- -------|
D|--------5---------------5------|--------5----------------------|
A|7---------------7--------------|7-------------------7-------7--|
E|-------------------------------|----------------7--------------|



G|------- ------- ------- -------|------- ------- ------- -------|
D|--------5---------------5------|--------5----------------------|
A|7---------------7--------------|7-------------------7-------7--|
E|-------------------------------|----------------7--------------|



G|------- ------- ------- -------|------- ------- ------- -------|
D|--------5---------------5------|--------5----------------------|
A|7---------------7--------------|7-------------------7-------7--|
E|-------------------------------|----------------7--------------|



G|------- ------- ------- -------|------- ------- ------- -------|
D|--------5---------------5------|--------5----------------------|
A|7---------------7--------------|7-------------------7-------7--|
E|-------------------------------|----------------7--------------|



G|------- 7------ ------- 7------|------- 7------ ------- -------|
D|9---------------9---9----------|9---9---------------9-------9--|
A|-------------------------------|----------------9--------------|
E|-------------------------------|-------------------------------|



G|------- ------- ------- -------|------- ------- ------- -------|
D|-------------------------------|-------------------------------|
A|7------------------------------|-------------------------------|
E|-------------------------------|-------------------------------|


Bridge:
G|------- ------- ------- -------|------- ------- ------- -------|
D|7-------7-------7-------7-7-5--|7-------7-------7-------7-7-5--|
A|-------------------------------|-------------------------------|
E|-------------------------------|-------------------------------|



G|------- ------- ------- -------|------- ------- ------- -------|
D|-------------------------------|-------------------------------|
A|7-------7-------7-------7-7-5--|7-------7-------7-------7-7-5--|
E|-------------------------------|-------------------------------|



G|------- ------- ------- -------|------- ------- ------- -------|
D|7-------7-------7-------7-7-5--|7-------7-------7-------7-7-5--|
A|-------------------------------|-------------------------------|
E|-------------------------------|-------------------------------|



G|------- ------- ------- -------|------- ------- ------- -------|
D|9-------9-------9-------9------|-------------------------------|
A|-------------------------------|-------------------------------|
E|-------------------------------|-------------------------------|



G|------- ------- ------- -------|------- ------- ------- -------|
D|9-------9-------9-------9------|-------------------------------|
A|-------------------------------|-------------------------------|
E|-------------------------------|-------------------------------|


Verse:
G|------- ------- ------- -------|------- ------- ------- -------|
D|--------5---------------5------|--------5----------------------|
A|7---------------7--------------|7-------------------7-------7--|
E|-------------------------------|----------------7--------------|



G|------- ------- ------- -------|------- ------- ------- -------|
D|--------5---------------5------|--------5----------------------|
A|7---------------7--------------|7-------------------7-------7--|
E|-------------------------------|----------------7--------------|



G|------- ------- ------- -------|------- ------- ------- -------|
D|--------5---------------5------|--------5----------------------|
A|7---------------7--------------|7-------------------7-------7--|
E|-------------------------------|----------------7--------------|



G|------- ------- ------- -------|------- ------- ------- -------|
D|--------5---------------5------|--------5----------------------|
A|7---------------7--------------|7-------------------7-------7--|
E|-------------------------------|----------------7--------------|



G|------- 7------ ------- 7------|------- 7------ ------- -------|
D|9---------------9---9----------|9---9---------------9-------9--|
A|-------------------------------|----------------9--------------|
E|-------------------------------|-------------------------------|



G|------- ------- ------- -------|------- ------- ------- -------|
D|-------------------------------|-------------------------------|
A|7------------------------------|-------------------------------|
E|-------------------------------|-------------------------------|
  I   love you,   you love me,    but you ne- ver walk with me

Verse:
G|------- ------- ------- -------|------- ------- ------- -------|
D|--------5---------------5------|--------5----------------------|
A|7---------------7--------------|7-------------------7-------7--|
E|-------------------------------|----------------7--------------|



G|------- ------- ------- -------|------- ------- ------- -------|
D|--------5---------------5------|--------5----------------------|
A|7---------------7--------------|7-------------------7-------7--|
E|-------------------------------|----------------7--------------|



G|------- ------- ------- -------|------- ------- ------- -------|
D|--------5---------------5------|--------5----------------------|
A|7---------------7--------------|7-------------------7-------7--|
E|-------------------------------|----------------7--------------|



G|------- ------- ------- -------|------- ------- ------- -------|
D|--------5---------------5------|--------5----------------------|
A|7---------------7--------------|7-------------------7-------7--|
E|-------------------------------|----------------7--------------|



G|------- 7------ ------- 7------|------- 7------ ------- -------|
D|9---------------9---9----------|9-------------------9-------9--|
A|-------------------------------|----------------9-------9------|
E|-------------------------------|-------------------------------|



G|------- ------- ------- -------|------- ------- ------- -------|
D|-------------------------------|-------------------------------|
A|7------------------------------|-------------------------------|
E|-------------------------------|-------------------------------|


Bridge:
G|------- ------- ------- -------|------- ------- ------- -------|
D|7-------7-------7-------7-7-5--|7-------7-------7-------7-7-5--|
A|-------------------------------|-------------------------------|
E|-------------------------------|-------------------------------|



G|------- ------- ------- -------|------- ------- ------- -------|
D|-------------------------------|-------------------------------|
A|7-------7-------7-------7-7-5--|7-------7-------7-------7-7-5--|
E|-------------------------------|-------------------------------|



G|------- ------- ------- -------|------- ------- ------- -------|
D|7-------7-------7-------7-7-5--|7-------7-------7-------7-7-5--|
A|-------------------------------|-------------------------------|
E|-------------------------------|-------------------------------|



G|------- ------- ------- -------|------- ------- ------- -------|
D|9-------9-------9-------9------|-------------------------------|
A|-------------------------------|-------------------------------|
E|-------------------------------|-------------------------------|



G|------- ------- ------- -------|------- ------- ------- -------|
D|9-------9-------9-------9------|------------------------12\----|
A|-------------------------------|-------------------------------|
E|-------------------------------|-------------------------------|


Verse:
G|------- ------- ------- -------|------- ------- ------- -------|
D|--------5---------------5------|--------5----------------------|
A|7---------------7--------------|7-------------------7-------7--|
E|-------------------------------|----------------7--------------|



G|------- ------- ------- -------|------- ------- ------- -------|
D|--------5---------------5------|--------5----------------------|
A|7---------------7--------------|7-------------------7-------7--|
E|-------------------------------|----------------7--------------|



G|------- ------- ------- -------|------- ------- ------- -------|
D|--------5---------------5------|--------5----------------------|
A|7---------------7--------------|7-------------------7-------7--|
E|-------------------------------|----------------7--------------|



G|------- ------- ------- -------|------- ------- ------- -------|
D|--------5---------------5------|--------5----------------------|
A|7---------------7--------------|7-------------------7-------7--|
E|-------------------------------|----------------7--------------|



G|------- 7------ ------- 7------|------- 7------ ------- -------|
D|9---------------9---9----------|9-------------------9-------9--|
A|-------------------------------|----------------9-------9------|
E|-------------------------------|-------------------------------|



G|------- ------- ------- -------|------- ------- ------- -------|
D|-------------------------------|-------------------------------|
A|7------------------------------|-------------------------------|
E|-------------------------------|-------------------------------|


Outro:
G|------- 7------ ------- 7------|------- 7------ ------- -------|
D|9---------------9---9----------|9---9---------------9-------9--|
A|-------------------------------|----------------9-------9------|
E|-------------------------------|-------------------------------|



G|------- ------- ------- -------|------- ------- ------- -------|
D|-------------------------------|-------------------------------|
A|7------------------------------|-------------------------------|
E|-------------------------------|-------------------------------|



G|------- 7------ ------- 7------|------- 7------ ------- -------|
D|9---------------9---9----------|9---9---------------9-------9--|
A|-------------------------------|----------------9-------9------|
E|-------------------------------|-------------------------------|



G|------- ------- ------- -------|------- ------- ------- -------|
D|-------------------------------|-------------------------------|
A|7------------------------------|-------------------------------|
E|-------------------------------|-------------------------------|

Please e-mail me for any corrections, or write a comment.

            
            
Suggest correction
Creating personal tab
Creating personal tab
You can edit any tab online and save it as your Personal.

You can edit, replace or remove any tab part or add personal notes – all changes will be seen only by you.

Personal tabs can be accessed anytime from any device, even offline.
Learn more »
Give kudos to tab author, rate the tab!
1 2 3 4 5
comments
print report bad tab
guest
You may want to rate the tab now too:
select rating
Wanna post a correction for this tab? Suggest correction