Oops, an error
Loading. Please wait.

Crazy Day tab

52 views 1 this week
no commentswrite comment
1 2 3 4 5
3 more votes to show rating
add to favorites
×
Save as Personal and add changes to this tab that will be seen only by you. Learn more ›
×
You can save this tab as Personal to edit and correct it or add notes. All changes will be seen only by you. Learn more »
launch autoscroll
font size
0
reset
how to read this tab
guitar tuner
edit
Autoscroll
slow
fast
+/-
esc
set tempo
stop
[Intro]

D#|---------------------------------------------------------|
A#|---------------------------------------------------------|
F#|7--7---7-----------------7-7-7-7-7-7-7-7-----------------|
C#|7--7---7--7--5--7--9-7-5-7-7-7-7-7-7-7-7-7-7-7-7-5-5-5-5-|
G#|5--5---5--7--5--7--9-7-5-5-5-5-5-5-5-5-5-7-7-7-7-5-5-5-5-|
C#|----------7--5--7--9-7-5-----------------7-7-7-7-5-5-5-5-|

D#|------------------------------------------------------|
A#|------------------------------------------------------|
F#|--7--7-7----------------------------------------------|
C#|--7--7-7--7--5--7--9-7-5--9-9-9-7-7-5---8-8-8-8-7-7-7-|
G#|--5--5-5--7--5--7--9-7-5--9-9-9-7-7-5---8-8-8-8-7-7-7-|
C#|----------7--5--7--9-7-5--9-9-9-7-7-5---8-8-8-8-7-7-7-|

[Verse 1]

One show...
         PM  PM     PM     PM        PM----------|
D#|----------------------------------------------------------|
A#|----------------------------------------------------------|
F#|7--7----7---9--9---6--6---6--7----------------------------|
C#|7--7--7-7-7-7--7-7-7--7-7-7--7-7--------------------7-7-7-|
G#|5--5--5-5-5-5--5-5-5--5-5-5--5-5--5-5-5-5-5-5-5-9-9-5-5-5-|
C#|-------------------------------5--5-5-5-5-5-5-5-5-5-5-5-5-|

            PM     PM     PM        PM-----------|
D#|--------------------------------------------------------|
A#|--------------------------------------------------------|
F#|--7--7-7---9--9---6--6----------------------------------|
C#|--7--7-7-7-7--7-7-7--7-7----7-7-------------------------|
G#|--5--5-5-5-5--5-5-5--5-5-9--5-5--5-5-5-5-5-5-5-7-7-5-5--|
C#|-------------------------5--5-5--5-5-5-5-5-5-5-5-5-5-5--|

[Pre-Chorus]

   PM-------------------------------------------------------------|
D#|----------------------------------------------------------------|
A#|----------------------------------------------------------------|
F#|----------------------------------------------------------------|
C#|4-4-4-4-4-4-4-4-4-4-4-4-4-4-4-4---------------------------------|
G#|2-2-2-2-2-2-2-2-2-2-2-2-2-2-2-2-5-5-5-5-5-5-5-5-5-5-5-5-5-5-5-5-|
C#|--------------------------------5-5-5-5-5-5-5-5-5-5-5-5-5-5-5-5-|

  PM------------------------------------------------|
D#|---------------------------------------------------------------|
A#|---------------------------------------------------------------|
F#|---------------------------------------------------------------|
C#|4-4-4-4-4-4-4-4-4-4-4-4-4-4-4-4--------------------------------|
G#|2-2-2-2-2-2-2-2-2-2-2-2-2-2-2-2-7-7-7-7-7-7-7-7-7-7-7-7-7-7-7--|
C#|--------------------------------7-7-7-7-7-7-7-7-7-7-7-7-7-7-7--|

[Chorus]

D#|------------------------------------------------------|
A#|------------------------------------------------------|
F#|7--7-7--7---------------------------------------------|
C#|7--7-7--7-7---7-7--7-7-7-7-9--9-9--9-5---5-5--5-5-5-5-|
G#|5--5-5--5-7---7-7--7-7-7-7-9--9-9--9-5---5-5--5-5-5-5-|
C#|----------7---7-7--7-7-7-7-9--9-9--9-5---5-5--5-5-5-5-|

D#|------------------------------------------------------|
A#|------------------------------------------------------|
F#|7--7-7--7---------------------------------------------|
C#|7--7-7--7-7---7-7--7-7-7-7-9--9-9--9-5---5-5--5-5-5-5-|
G#|5--5-5--5-7---7-7--7-7-7-7-9--9-9--9-5---5-5--5-5-5-5-|
C#|----------7---7-7--7-7-7-7-9--9-9--9-5---5-5--5-5-5-5-|


D#|------------------------------------------------------|
A#|------------------------------------------------------|
F#|7--7-7--7---------------------------------------------|
C#|7--7-7--7-7---7-7--7-7-7-7-9--9-9--9-5---5-5--5-5-5-5-|
G#|5--5-5--5-7---7-7--7-7-7-7-9--9-9--9-5---5-5--5-5-5-5-|
C#|----------7---7-7--7-7-7-7-9--9-9--9-5---5-5--5-5-5-5-|

D#|------------------------------------------------------|
A#|------------------------------------------------------|
F#|7--7-7--7---------------------------------------------|
C#|7--7-7--7-7---7-7--7-7-7-7-9--9-9--9-5---5-5--5-5-5-5-|
G#|5--5-5--5-7---7-7--7-7-7-7-9--9-9--9-5---5-5--5-5-5-5-|
C#|----------7---7-7--7-7-7-7-9--9-9--9-5---5-5--5-5-5-5-|

[Interlude]

D#|---------------------------------|
A#|---------------------------------|
F#|7--------------------------------|
C#|---------------------------------|
G#|5--------------------------------|
C#|---------------------------------|

[Verse 2]

         PM  PM     PM     PM        PM----------|
D#|----------------------------------------------------------|
A#|----------------------------------------------------------|
F#|7--7----7---9--9---6--6---6--7----------------------------|
C#|7--7--7-7-7-7--7-7-7--7-7-7--7-7--------------------7-7-7-|
G#|5--5--5-5-5-5--5-5-5--5-5-5--5-5--5-5-5-5-5-5-5-9-9-5-5-5-|
C#|-------------------------------5--5-5-5-5-5-5-5-5-5-5-5-5-|

            PM     PM     PM        PM-----------|
D#|--------------------------------------------------------|
A#|--------------------------------------------------------|
F#|--7--7-7---9--9---6--6----------------------------------|
C#|--7--7-7-7-7--7-7-7--7-7----7-7-------------------------|
G#|--5--5-5-5-5--5-5-5--5-5-9--5-5--5-5-5-5-5-5-5-7-7-5-5--|
C#|-------------------------5--5-5--5-5-5-5-5-5-5-5-5-5-5--|

   PM-------------------------------------------------------------|
D#|----------------------------------------------------------------|
A#|----------------------------------------------------------------|
F#|----------------------------------------------------------------|
C#|7-7-7-7-7-7-7-7-7-7-7-7-7-7-7-7---------------------------------|
G#|5-5-5-5-5-5-5-5-5-5-5-5-5-5-5-5-5-5-5-5-5-5-5-5-5-5-5-5-5-5-5-5-|
C#|--------------------------------5-5-5-5-5-5-5-5-5-5-5-5-5-5-5-5-|

   PM-------------------------------------------------------------|
D#|----------------------------------------------------------------|
A#|----------------------------------------------------------------|
F#|----------------------------------------------------------------|
C#|7-7-7-7-7-7-7-7-7-7-7-7-7-7-7-7---------------------------------|
G#|5-5-5-5-5-5-5-5-5-5-5-5-5-5-5-5-5-5-5-5-5-5-5-5-5-5-5-5-5-5-5-5-|
C#|--------------------------------5-5-5-5-5-5-5-5-5-5-5-5-5-5-5-5-|

[Pre-Chorus]

I'm holding on...
D#|-----------------------------------------------|
A#|-----------------------------------------------|
F#|7---6--------------------7---6---7---7-7-7-7---|
C#|7---7---7---7-7--7-7-7-7-7---7---7---7-7-7-7---|
G#|5---5---5---5-5--5-5-5-5-5---5---5---5-5-5-5---|
C#|5---5---5---5-5--5-5-5-5-5---5---5---5-5-5-5---|

[Chorus]

D#|------------------------------------------------------|
A#|------------------------------------------------------|
F#|7--7-7--7---------------------------------------------|
C#|7--7-7--7-7---7-7--7-7-7-7-9--9-9--9-5---5-5--5-5-5-5-|
G#|5--5-5--5-7---7-7--7-7-7-7-9--9-9--9-5---5-5--5-5-5-5-|
C#|----------7---7-7--7-7-7-7-9--9-9--9-5---5-5--5-5-5-5-|

D#|------------------------------------------------------|
A#|------------------------------------------------------|
F#|7--7-7--7---------------------------------------------|
C#|7--7-7--7-7---7-7--7-7-7-7-9--9-9--9-5---5-5--5-5-5-5-|
G#|5--5-5--5-7---7-7--7-7-7-7-9--9-9--9-5---5-5--5-5-5-5-|
C#|----------7---7-7--7-7-7-7-9--9-9--9-5---5-5--5-5-5-5-|


D#|------------------------------------------------------|
A#|------------------------------------------------------|
F#|7--7-7--7---------------------------------------------|
C#|7--7-7--7-7---7-7--7-7-7-7-9--9-9--9-5---5-5--5-5-5-5-|
G#|5--5-5--5-7---7-7--7-7-7-7-9--9-9--9-5---5-5--5-5-5-5-|
C#|----------7---7-7--7-7-7-7-9--9-9--9-5---5-5--5-5-5-5-|

D#|------------------------------------------------------|
A#|------------------------------------------------------|
F#|7--7-7--7---------------------------------------------|
C#|7--7-7--7-7---7-7--7-7-7-7-9--9-9--9-5---5-5--5-5-5-5-|
G#|5--5-5--5-7---7-7--7-7-7-7-9--9-9--9-5---5-5--5-5-5-5-|
C#|----------7---7-7--7-7-7-7-9--9-9--9-5---5-5--5-5-5-5-|

[Bridge]

D#|---------------------------------------------------------|
A#|---------------------------------------------------------|
F#|7--7---7-----------------7-7-7-7-7-7-7-7-----------------|
C#|7--7---7--7--5--7--9-7-5-7-7-7-7-7-7-7-7-7-7-7-7-5-5-5-5-|
G#|5--5---5--7--5--7--9-7-5-5-5-5-5-5-5-5-5-7-7-7-7-5-5-5-5-|
C#|----------7--5--7--9-7-5-----------------7-7-7-7-5-5-5-5-|

D#|------------------------------------------------------|
A#|------------------------------------------------------|
F#|--7--7-7------------------7-7-7-7-7-7-----------------|
C#|--7--7-7--7--5--7--9-7-5--7-7-7-7-7-7---8-8-8-8-7-7-7-|
G#|--5--5-5--7--5--7--9-7-5--5-5-5-5-5-5---8-8-8-8-7-7-7-|
C#|----------7--5--7--9-7-5----------------8-8-8-8-7-7-7-|

D#|----------------------------------------------------------------|
A#|----------------------------------------------------------------|
F#|----------------------------------------------------------------|
C#|9-9-9-9-9-9-9-9-9-9-9-9-9-9-9-9-5-5-5-5-5-5-5-5-5-5-5-5-5-5-5-5-|
G#|9-9-9-9-9-9-9-9-9-9-9-9-9-9-9-9-5-5-5-5-5-5-5-5-5-5-5-5-5-5-5-5-|
C#|9-9-9-9-9-9-9-9-9-9-9-9-9-9-9-9-5-5-5-5-5-5-5-5-5-5-5-5-5-5-5-5-|

D#|----------------------------------------------------------------|
A#|----------------------------------------------------------------|
F#|----------------------------------------------------------------|
C#|9-9-9-9-9-9-9-9-9-9-9-9-9-9-9-9-7-7-7-7-7-7-7-7-7-7-7-7-7-7-7-7-|
G#|9-9-9-9-9-9-9-9-9-9-9-9-9-9-9-9-7-7-7-7-7-7-7-7-7-7-7-7-7-7-7-7-|
C#|9-9-9-9-9-9-9-9-9-9-9-9-9-9-9-9-7-7-7-7-7-7-7-7-7-7-7-7-7-7-7-7-|

[Chorus]

and they're becoming...
D#|-------------------------------------------------|
A#|-------------------------------------------------|
F#|-------------------------------------------------|
C#|--------------x-x-x-x-9--9-9--9-5---5-5--5-5-5-5-|
G#|--------------x-x-x-x-9--9-9--9-5---5-5--5-5-5-5-|
C#|--------------x-x-x-x-9--9-9--9-5---5-5--5-5-5-5-|

D#|------------------------------------------------------|
A#|------------------------------------------------------|
F#|7--7-7--7---------------------------------------------|
C#|7--7-7--7-7---7-7--7-7-7-7-9--9-9--9-5---5-5--5-5-5-5-|
G#|5--5-5--5-7---7-7--7-7-7-7-9--9-9--9-5---5-5--5-5-5-5-|
C#|----------7---7-7--7-7-7-7-9--9-9--9-5---5-5--5-5-5-5-|

D#|------------------------------------------------------|
A#|------------------------------------------------------|
F#|7--7-7--7---------------------------------------------|
C#|7--7-7--7-7---7-7--7-7-7-7-9--9-9--9-5---5-5--5-5-5-5-|
G#|5--5-5--5-7---7-7--7-7-7-7-9--9-9--9-5---5-5--5-5-5-5-|
C#|----------7---7-7--7-7-7-7-9--9-9--9-5---5-5--5-5-5-5-|

D#|------------------------------------------------------|
A#|------------------------------------------------------|
F#|7--7-7--7---------------------------------------------|
C#|7--7-7--7-7---7-7--7-7-7-7-9--9-9--9-5---5-5--5-5-5-5-|
G#|5--5-5--5-7---7-7--7-7-7-7-9--9-9--9-5---5-5--5-5-5-5-|
C#|----------7---7-7--7-7-7-7-9--9-9--9-5---5-5--5-5-5-5-|


************************************

| x   Dead note
| PM  Palm mute

************************************

            
            
Suggest correction
Creating personal tab
Creating personal tab
You can edit any tab online and save it as your Personal.

You can edit, replace or remove any tab part or add personal notes – all changes will be seen only by you.

Personal tabs can be accessed anytime from any device, even offline.
Learn more »
Give kudos to tab author, rate the tab!
1 2 3 4 5
comments
print report bad tab
guest
You may want to rate the tab now too:
select rating
Wanna post a correction for this tab? Suggest correction