Oops, an error
Loading. Please wait.

Get Up Get Out tab

91 views 1 this week
no commentswrite comment
1 2 3 4 5
2 more votes to show rating
add to favorites
×
Save as Personal and add changes to this tab that will be seen only by you. Learn more ›
×
You can save this tab as Personal to edit and correct it or add notes. All changes will be seen only by you. Learn more »
launch autoscroll
font size
0
reset
how to read this tab
guitar tuner
edit
Autoscroll
slow
fast
+/-
esc
set tempo
stop
[Intro]

D#|-------------------------------------------------------------------|
A#|-------------------------------------------------------------------|
F#|------------------------------------9--9-9-9-9-9-9-9-9-9-9-9-9-9-9-|
C#|x-x-x-4--4-4-4-4-4-4-7--7-7-7-7-7-7-9--9-9-9-9-9-9-9-9-9-9-9-9-9-9-|
G#|x-x-x-4--4-4-4-4-4-4-7--7-7-7-7-7-7-7--7-7-7-7-7-7-7-7-7-7-7-7-7-7-|
C#|x-x-x-4--4-4-4-4-4-4-7--7-7-7-7-7-7--------------------------------|

D#|-------------------------------------------------------------|
A#|-------------------------------------------------------------|
F#|--------------------------------6-6--6-6-6--6-6-6--6-7-7-6-6-|
C#|4--4-4-4-4-4-4-7--7-7-7-7-7-7-7-6-6--6-6-6--6-6-6--6-7-7-6-6-|
G#|4--4-4-4-4-4-4-7--7-7-7-7-7-7-7-4-4--4-4-4--4-4-4--4-5-5-4-4-|
C#|4--4-4-4-4-4-4-7--7-7-7-7-7-7-7------------------------------|


[Verse 1]

   PM-------------------------------------------------------------|
D#|----------------------------------------------------------------|
A#|----------------------------------------------------------------|
F#|----------------------------------------------------------------|
C#|------------------------------------------------9-9-9-9---------|
G#|4-4-4-4-4-4-4-4-7-7-7-7-7-7-7-7-9-9-9-9-9-9-9-9-7-7-7-7-9-9-9-9-|
C#|4-4-4-4-4-4-4-4-7-7-7-7-7-7-7-7-9-9-9-9-9-9-9-9---------9-9-9-9-|
   
PM----------------------------------------------------------------|
D#|----------------------------------------------------------------|
A#|----------------------------------------------------------------|
F#|----------------------------------------------------------------|
C#|------------------------------------------------9-9-9-9---------|
G#|4-4-4-4-4-4-4-4-7-7-7-7-7-7-7-7-9-9-9-9-9-9-9-9-7-7-7-7-9-9-9-9-|
C#|4-4-4-4-4-4-4-4-7-7-7-7-7-7-7-7-9-9-9-9-9-9-9-9---------9-9-9-9-|

   PM-------------------------------------------------------------|
D#|----------------------------------------------------------------|
A#|----------------------------------------------------------------|
F#|----------------------------------------------------------------|
C#|------------------------------------------------9-9-9-9---------|
G#|4-4-4-4-4-4-4-4-7-7-7-7-7-7-7-7-9-9-9-9-9-9-9-9-7-7-7-7-9-9-9-9-|
C#|4-4-4-4-4-4-4-4-7-7-7-7-7-7-7-7-9-9-9-9-9-9-9-9---------9-9-9-9-|
   
PM--------------------------------------------------------|
D#|--------------------------------------------------------------|
A#|--------------------------------------------------------------|
F#|--------------------------------------------------------------|
C#|------------------------------------------------9-9-9-9-9-9-9-|
G#|4-4-4-4-4-4-4-4-7-7-7-7-7-7-7-7-9-9-9-9-9-9-9-9-7-7-7-7-9-9-9-|
C#|4-4-4-4-4-4-4-4-7-7-7-7-7-7-7-7-9-9-9-9-9-9-9-9---------9-9-9-|


[Chorus]

D#|--------------------------------------------------------|
A#|--------------------------------------------------------|
F#|----------------------------9--9-9--9-9-9--9-9-9--9-9-9-|
C#|4--4-4--4-4-4--7-7-7--7-7-7-9--9-9--9-9-9--9-9-9--9-9-9-|
G#|4--4-4--4-4-4--7-7-7--7-7-7-7--7-7--7-7-7--7-7-7--7-7-7-|
C#|4--4-4--4-4-4--7-7-7--7-7-7-----------------------------|

D#|--------------------------------------------------------|
A#|--------------------------------------------------------|
F#|----------------------------9--9-9--9-9-9--9-9-9--9-9-9-|
C#|4--4-4--4-4-4--7-7-7--7-7-7-9--9-9--9-9-9--9-9-9--9-9-9-|
G#|4--4-4--4-4-4--7-7-7--7-7-7-7--7-7--7-7-7--7-7-7--7-7-7-|
C#|4--4-4--4-4-4--7-7-7--7-7-7-----------------------------|

D#|--------------------------------------------------------|
A#|--------------------------------------------------------|
F#|----------------------------9--9-9--9-9-9--9-9-9--9-9-9-|
C#|4--4-4--4-4-4--7-7-7--7-7-7-9--9-9--9-9-9--9-9-9--9-9-9-|
G#|4--4-4--4-4-4--7-7-7--7-7-7-7--7-7--7-7-7--7-7-7--7-7-7-|
C#|4--4-4--4-4-4--7-7-7--7-7-7-----------------------------|

D#|-------------------------------------------------------|
A#|-------------------------------------------------------|
F#|7-7--7-7-7--7-7-7--7-7-7-7-7-9-9-9-9-9-9-9-9-9\--------|
C#|7-7--7-7-7--7-7-7--7-7-7-7-7-9-9-9-9-9-9-9-9-9\--------|
G#|5-5--5-5-5--5-5-5--5-5-5-5-5-7-7-7-7-7-7-7-7-7\--------|
C#|-------------------------------------------------------|


[Interlude]

D#|-------------------------------------------------------------|
A#|-------------------------------------------------------------|
F#|------------------------------9--9-9-9-9-9-9-9-9-9-9-9-------|
C#|4--4-4-4-4-4-4-7--7-7-7-7-7-7-9--9-9-9-9-9-9-9-9-9-9-9-x-x-x-|
G#|4--4-4-4-4-4-4-7--7-7-7-7-7-7-7--7-7-7-7-7-7-7-7-7-7-7-x-x-x-|
C#|4--4-4-4-4-4-4-7--7-7-7-7-7-7--------------------------x-x-x-|

D#|-------------------------------------------------------------|
A#|-------------------------------------------------------------|
F#|--------------------------------6-6--6-6-6--6-6-6--6-7-7-6-6-|
C#|4--4-4-4-4-4-4-7--7-7-7-7-7-7-7-6-6--6-6-6--6-6-6--6-7-7-6-6-|
G#|4--4-4-4-4-4-4-7--7-7-7-7-7-7-7-4-4--4-4-4--4-4-4--4-5-5-4-4-|
C#|4--4-4-4-4-4-4-7--7-7-7-7-7-7-7------------------------------|


[Verse 2]
  
 PM-------------------------------------------------------------|
D#|----------------------------------------------------------------|
A#|----------------------------------------------------------------|
F#|----------------------------------------------------------------|
C#|------------------------------------------------9-9-9-9---------|
G#|4-4-4-4-4-4-4-4-7-7-7-7-7-7-7-7-9-9-9-9-9-9-9-9-7-7-7-7-9-9-9-9-|
C#|4-4-4-4-4-4-4-4-7-7-7-7-7-7-7-7-9-9-9-9-9-9-9-9---------9-9-9-9-|
   
PM----------------------------------------------------------------|
D#|----------------------------------------------------------------|
A#|----------------------------------------------------------------|
F#|----------------------------------------------------------------|
C#|------------------------------------------------9-9-9-9---------|
G#|4-4-4-4-4-4-4-4-7-7-7-7-7-7-7-7-9-9-9-9-9-9-9-9-7-7-7-7-9-9-9-9-|
C#|4-4-4-4-4-4-4-4-7-7-7-7-7-7-7-7-9-9-9-9-9-9-9-9---------9-9-9-9-|

   PM-|   PM-|   PM-|   PM-|   PM-|   PM-|   PM-|    PM-|
D#|---------------------------------------------------------|
A#|---------------------------------------------------------|
F#|----------------------------------------------9----------|
C#|----4------4------7------7------9------9--9-9-9-------9--|
G#|4-4-4--4-4-4--7-7-7--7-7-7--9-9-9--9-9-9--7-7-7---9-9-9--|
C#|4-4-4--4-4-4--7-7-7--7-7-7--9-9-9--9-9-9----------9-9-9--|
   
   PM-|   PM-|   PM-|   PM-|   PM-|   PM-|   PM-|    PM-|
D#|---------------------------------------------------------|
A#|---------------------------------------------------------|
F#|----------------------------------------------9----------|
C#|----4------4------7------7------9------9--9-9-9-------9--|
G#|4-4-4--4-4-4--7-7-7--7-7-7--9-9-9--9-9-9--7-7-7---9-9-9--|
C#|4-4-4--4-4-4--7-7-7--7-7-7--9-9-9--9-9-9----------9-9-9--|

D#|-----------------------------------|
A#|-----------------------------------|
F#|-----------------------------------|
C#|4----------------2------------x-x--|
G#|4----------------2------------x-x--|
C#|4----------------2------------x-x--|

[Chorus]

D#|--------------------------------------------------------|
A#|--------------------------------------------------------|
F#|----------------------------9--9-9--9-9-9--9-9-9--9-9-9-|
C#|4--4-4--4-4-4--7-7-7--7-7-7-9--9-9--9-9-9--9-9-9--9-9-9-|
G#|4--4-4--4-4-4--7-7-7--7-7-7-7--7-7--7-7-7--7-7-7--7-7-7-|
C#|4--4-4--4-4-4--7-7-7--7-7-7-----------------------------|

D#|--------------------------------------------------------|
A#|--------------------------------------------------------|
F#|----------------------------9--9-9--9-9-9--9-9-9--9-9-9-|
C#|4--4-4--4-4-4--7-7-7--7-7-7-9--9-9--9-9-9--9-9-9--9-9-9-|
G#|4--4-4--4-4-4--7-7-7--7-7-7-7--7-7--7-7-7--7-7-7--7-7-7-|
C#|4--4-4--4-4-4--7-7-7--7-7-7-----------------------------|

D#|--------------------------------------------------------|
A#|--------------------------------------------------------|
F#|----------------------------9--9-9--9-9-9--9-9-9--9-9-9-|
C#|4--4-4--4-4-4--7-7-7--7-7-7-9--9-9--9-9-9--9-9-9--9-9-9-|
G#|4--4-4--4-4-4--7-7-7--7-7-7-7--7-7--7-7-7--7-7-7--7-7-7-|
C#|4--4-4--4-4-4--7-7-7--7-7-7-----------------------------|

D#|-------------------------------------------------------------|
A#|-------------------------------------------------------------|
F#|7-7--7-7-7--7-7-7--7-7-7-7-7-9-9-9-9-9-9-9-9-9-9-9-9-9-9-9-9-|
C#|7-7--7-7-7--7-7-7--7-7-7-7-7-9-9-9-9-9-9-9-9-9-9-9-9-9-9-9-9-|
G#|5-5--5-5-5--5-5-5--5-5-5-5-5-7-7-7-7-7-7-7-7-7-7-7-7-7-7-7-7-|
C#|-------------------------------------------------------------|


[Bridge]

D#|-------------------------------------------------------------|
A#|-------------------------------------------------------------|
F#|11---11-11-6-6---4-4-4-4-7-6-6-11---11-11-6-6---4-4-4-4-6-6--|
C#|11---11-11-6-6---4-4-4-4-7-6-6-11---11-11-6-6---4-4-4-4-6-6--|
G#|9----9--9--4-4---2-2-2-2-5-4-4-9----9--9--4-4---2-2-2-2-4-4--|
C#|-------------------------------------------------------------|

D#|-------------------------------------------------------------|
A#|-------------------------------------------------------------|
F#|11---11-11-6-6---4-4-4-4-7-6-6-11---11-11-6-6---4-4-4-4-6-6--|
C#|11---11-11-6-6---4-4-4-4-7-6-6-11---11-11-6-6---4-4-4-4-6-6--|
G#|9----9--9--4-4---2-2-2-2-5-4-4-9----9--9--4-4---2-2-2-2-4-4--|
C#|-------------------------------------------------------------|

D#|---------------------------------|
A#|---------------------------------|
F#|6----------------4---------------|
C#|6----------------4---------------|
G#|4----------------2---------------|
C#|---------------------------------|


[Chorus]

D#|--------------------------------------------------------|
A#|--------------------------------------------------------|
F#|----------------------------9--9-9--9-9-9--9-9-9--9-9-9-|
C#|4--4-4--4-4-4--7-7-7--7-7-7-9--9-9--9-9-9--9-9-9--9-9-9-|
G#|4--4-4--4-4-4--7-7-7--7-7-7-7--7-7--7-7-7--7-7-7--7-7-7-|
C#|4--4-4--4-4-4--7-7-7--7-7-7-----------------------------|

D#|--------------------------------------------------------|
A#|--------------------------------------------------------|
F#|----------------------------9--9-9--9-9-9--9-9-9--9-9-9-|
C#|4--4-4--4-4-4--7-7-7--7-7-7-9--9-9--9-9-9--9-9-9--9-9-9-|
G#|4--4-4--4-4-4--7-7-7--7-7-7-7--7-7--7-7-7--7-7-7--7-7-7-|
C#|4--4-4--4-4-4--7-7-7--7-7-7-----------------------------|

D#|--------------------------------------------------------|
A#|--------------------------------------------------------|
F#|----------------------------9--9-9--9-9-9--9-9-9--9-9-9-|
C#|4--4-4--4-4-4--7-7-7--7-7-7-9--9-9--9-9-9--9-9-9--9-9-9-|
G#|4--4-4--4-4-4--7-7-7--7-7-7-7--7-7--7-7-7--7-7-7--7-7-7-|
C#|4--4-4--4-4-4--7-7-7--7-7-7-----------------------------|

D#|-------------------------------------------------------|
A#|-------------------------------------------------------|
F#|7-7--7-7-7--7-7-7--7-7-7-7-7-9-9-9-9-9-9-9-9-9\--------|
C#|7-7--7-7-7--7-7-7--7-7-7-7-7-9-9-9-9-9-9-9-9-9\--------|
G#|5-5--5-5-5--5-5-5--5-5-5-5-5-7-7-7-7-7-7-7-7-7\--------|
C#|-------------------------------------------------------|

D#|----------------------------------|
A#|----------------------------------|
F#|----------------------------------|
C#|4---------------------------------|
G#|4---------------------------------|
C#|4---------------------------------|


************************************

| x   Dead note
| \   Slide down
| PM  Palm mute

************************************

            
            
Suggest correction
Creating personal tab
Creating personal tab
You can edit any tab online and save it as your Personal.

You can edit, replace or remove any tab part or add personal notes – all changes will be seen only by you.

Personal tabs can be accessed anytime from any device, even offline.
Learn more »
Give kudos to tab author, rate the tab!
1 2 3 4 5
comments
print report bad tab
guest
You may want to rate the tab now too:
select rating
Wanna post a correction for this tab? Suggest correction