Oops, an error
Loading. Please wait.

Set Free tab

version 1
version 1

Whole song

58 views 1 this week
no commentswrite comment
1 2 3 4 5
1 last vote to show rating
add to favorites
×
Save as Personal and add changes to this tab that will be seen only by you. Learn more ›
×
You can save this tab as Personal to edit and correct it or add notes. All changes will be seen only by you. Learn more »
launch autoscroll
font size
0
reset
how to read this tab
guitar tuner
edit
Autoscroll
slow
fast
+/-
esc
set tempo
stop
[Intro]

e|---------------------------------------------------------|
B|---------------------------------------------------------|
G|7--7-7-9-11-6--6-6-6-6-7--x-4-4-4-4--2--2--2-2-2-2-2-2-2-|
D|-------------------------------------2--2--2-2-2-2-2-2-2-|
A|5--5-5-7-9--4--4-4-4-4-5--x-2-2-2-2--0--0--0-0-0-0-0-0-0-|
d|---------------------------------------------------------|

e|---------------------------------------------------------|
B|---------------------------------------------------------|
G|7--7-7-12-11-9--9-9-9-9-11--7-7-7-7----------------------|
D|-------------------------------------4--5--5-5-5-5-5-5-5-|
A|5--5-5-10-9--7--7-7-7-7-9---5-5-5-5--4--5--5-5-5-5-5-5-5-|
d|-------------------------------------4--5--5-5-5-5-5-5-5-|

e|---------------------------------------------------------|
B|---------------------------------------------------------|
G|7--7-7-9-11-6--6-6-6-6-7--x-4-4-4-4--2--2--2-2-2-2-2-2-2-|
D|-------------------------------------2--2--2-2-2-2-2-2-2-|
A|5--5-5-7-9--4--4-4-4-4-5--x-2-2-2-2--0--0--0-0-0-0-0-0-0-|
d|---------------------------------------------------------|
  
                               PM-----------|
e|---------------------------------------------------------|
B|---------------------------------------------------------|
G|7--7-7-12-11-9--9-9-9-9-11-x-7----------------9-9--9-11--|
D|--------------------------------5-5-5-5-5-5-5------------|
A|5--5-5-10-9--7--7-7-7-7-9--x-5--5-5-5-5-5-5-5-7-7--7-9---|
d|--------------------------------5-5-5-5-5-5-5------------|
  

[Verse 1]

  PM---------|      PM---------|   PM-------|     PM---------|
e|--------------------------------------------------------------|
B|--------------------------------------------------------------|
G|9--------------9--9-------------6------------6--7-------------|
D|7--------------7--7-------------7------------7--7-------------|
A|5--5-5-5-5-5-5-5--5-5-5-5-5-5-5-5--5-5-5-5-5-5--5-5-5-5-5-5-5-|
d|--------------------------------------------------------------|
 
   PM---------|    PM---------|   PM---------|  
e|------------------------------------------------------------|
B|------------------------------------------------------------|
G|11-----------9--11------------7-----------------------------|
D|9------------9--9-------------5------------8--8-8-8-8-8-8-8-|
A|9------------9--9-------------5------------5--5-5-5-5-5-5-5-|
d|9--9-9-9-9-9------9-9-9-9-9-9-5--5-5-5-5-5-5--5-5-5-5-5-5-5-|
  
    PM--------|    PM----------|   PM--------|    PM----------|
e|------------------------------------------------------------|
B|------------------------------------------------------------|
G|9------------9--9-------------6------------6--7-------------|
D|7------------7--7-------------7------------7--7-------------|
A|5--5-5-5-5-5-5--5-5-5-5-5-5-5-5--5-5-5-5-5-5--5-5-5-5-5-5-5-|
d|------------------------------------------------------------|
   
    PM---------|    PM---------|   PM---------|                  PM--------|
e|-------------------------------------------------------------------------------------------|
B|-------------------------------------------------------------------------------------------|
G|11-----------9--11------------7------------------------------------------------------------|
D|9------------9--9-------------5------------8--8-8-8-8-8-8-8-7--7-7-7-7-7-7-7-7-7-7-7-7-7-7-|
A|9------------9--9-------------5------------5--5-5-5-5-5-5-5-7--7-7-7-7-7-7-7-7-7-7-7-7-7-7-|
d|9--9-9-9-9-9------9-9-9-9-9-9-5--5-5-5-5-5-5--5-5-5-5-5-5-5-7--7-7-7-7-7-7-7-7-7-7-7-7-7-7-|


[Chorus]

e|------------------------------------------------------------------|
B|----10-10-8-8-7-7-8-8-7-7-------------------------8-8-7-7---------|
G|7-7-----------------------9-9-7-7-9-9-7-7-----------------9-9-7-7-|
D|------------------------------------------7-7-9-9-----------------|
A|------------------------------------------------------------------|
d|------------------------------------------------------------------|

e|------------------------------------------------------------------|
B|----10-10-8-8-7-7-8-8-7-7-------------------------8-8-7-7---------|
G|7-7-----------------------9-9-7-7-9-9-7-7-----------------9-9-7-7-|
D|------------------------------------------7-7-9-9-----------------|
A|------------------------------------------------------------------|
d|------------------------------------------------------------------|

e|------------------------------------------------------------------|
B|----10-10-8-8-7-7-8-8-7-7-------------------------8-8-7-7---------|
G|7-7-----------------------9-9-7-7-9-9-7-7-----------------9-9-7-7-|
D|------------------------------------------7-7-9-9-----------------|
A|------------------------------------------------------------------|
d|------------------------------------------------------------------|

e|------------------------------------------------------------|
B|----10-10-8-8-7-7-8-8-7-7-----------------------------------|
G|7-7-----------------------9-9-7-7---------------------------|
D|----------------------------------9-12--9--7--5--7--9--5-7--|
A|----------------------------------9-12--9--7--5--7--9--5-7--|
d|----------------------------------9-12--9--7--5--7--9--5-7--|

  
[Verse 2]

e|---------------------------------------------------------|
B|---------------------------------------------------------|
G|7--7-7-9-11-6--6-6-6-6-7--x-4-4-4-4--2--2--2-2-2-2-2-2-2-|
D|-------------------------------------2--2--2-2-2-2-2-2-2-|
A|5--5-5-7-9--4--4-4-4-4-5--x-2-2-2-2--0--0--0-0-0-0-0-0-0-|
d|---------------------------------------------------------|

e|---------------------------------------------------------|
B|---------------------------------------------------------|
G|7--7-7-12-11-9--9-9-9-9-11--7-7-7-7----------------------|
D|-------------------------------------4--5--5-5-5-5-5-5-5-|
A|5--5-5-10-9--7--7-7-7-7-9---5-5-5-5--4--5--5-5-5-5-5-5-5-|
d|-------------------------------------4--5--5-5-5-5-5-5-5-|

e|---------------------------------------------------------|
B|---------------------------------------------------------|
G|7--7-7-9-11-6--6-6-6-6-7--x-4-4-4-4--2--2--2-2-2-2-2-2-2-|
D|-------------------------------------2--2--2-2-2-2-2-2-2-|
A|5--5-5-7-9--4--4-4-4-4-5--x-2-2-2-2--0--0--0-0-0-0-0-0-0-|
d|---------------------------------------------------------|

                                  PM----------|
e|---------------------------------------------------------|
B|---------------------------------------------------------|
G|7--7-7-12-11-9--9-9-9-9-11-x-7----------------9-9--9-11--|
D|--------------------------------5-5-5-5-5-5-5------------|
A|5--5-5-10-9--7--7-7-7-7-9--x-5--5-5-5-5-5-5-5-7-7--7-9---|
d|--------------------------------5-5-5-5-5-5-5------------|


  PM---------|      PM---------|   PM-------|     PM---------|
e|--------------------------------------------------------------|
B|--------------------------------------------------------------|
G|9--------------9--9-------------6------------6--7-------------|
D|7--------------7--7-------------7------------7--7-------------|
A|5--5-5-5-5-5-5-5--5-5-5-5-5-5-5-5--5-5-5-5-5-5--5-5-5-5-5-5-5-|
d|--------------------------------------------------------------|
 
   PM---------|    PM---------|   PM---------|  
e|------------------------------------------------------------|
B|------------------------------------------------------------|
G|11-----------9--11------------7-----------------------------|
D|9------------9--9-------------5------------8--8-8-8-8-8-8-8-|
A|9------------9--9-------------5------------5--5-5-5-5-5-5-5-|
d|9--9-9-9-9-9------9-9-9-9-9-9-5--5-5-5-5-5-5--5-5-5-5-5-5-5-|

e|----------------------------------------------------|
B|----------------------------------------------------|
G|9---7--7--7--9--7--9-11-6---6--6--6--7--6--7-9--4---|
D|7---------------------------------------------------|
A|5---5--5--5--7--5--7-9--4---4--4--4--5--4--5-7--2---|
d|----------------------------------------------------|

e|-----------------------------------------------------------------------------|
B|-----------------------------------------------------------------------------|
G|11-11-11-9--11-12-11-7---7--7--7--9--7--9-11--9------------------------------|
D|-------------------------------------------------7-7-7-7-7-7-7-7-7-7-7-7-7-7-|
A|9--9--9--7--9--10-9--5---5--5--5--7--5--7-9---7--7-7-7-7-7-7-7-7-7-7-7-7-7-7-|
d|-------------------------------------------------7-7-7-7-7-7-7-7-7-7-7-7-7-7-|


[Chorus]

e|------------------------------------------------------------------|
B|----10-10-8-8-7-7-8-8-7-7-------------------------8-8-7-7---------|
G|7-7-----------------------9-9-7-7-9-9-7-7-----------------9-9-7-7-|
D|------------------------------------------7-7-9-9-----------------|
A|------------------------------------------------------------------|
d|------------------------------------------------------------------|

e|------------------------------------------------------------------|
B|----10-10-8-8-7-7-8-8-7-7-------------------------8-8-7-7---------|
G|7-7-----------------------9-9-7-7-9-9-7-7-----------------9-9-7-7-|
D|------------------------------------------7-7-9-9-----------------|
A|------------------------------------------------------------------|
d|------------------------------------------------------------------|

e|------------------------------------------------------------------|
B|----10-10-8-8-7-7-8-8-7-7-------------------------8-8-7-7---------|
G|7-7-----------------------9-9-7-7-9-9-7-7-----------------9-9-7-7-|
D|------------------------------------------7-7-9-9-----------------|
A|------------------------------------------------------------------|
d|------------------------------------------------------------------|

e|------------------------------------------------------------|
B|----10-10-8-8-7-7-8-8-7-7-----------------------------------|
G|7-7-----------------------9-9-7-7---------------------------|
D|----------------------------------9-12--9--7--5--7--9--5-7--|
A|----------------------------------9-12--9--7--5--7--9--5-7--|
d|----------------------------------9-12--9--7--5--7--9--5-7--|

e|------------------------------------------------------------------|
B|----10-10-8-8-7-7-8-8-7-7-------------------------8-8-7-7---------|
G|7-7-----------------------9-9-7-7-9-9-7-7-----------------9-9-7-7-|
D|------------------------------------------7-7-9-9-----------------|
A|------------------------------------------------------------------|
d|------------------------------------------------------------------|

e|------------------------------------------------------------------|
B|----10-10-8-8-7-7-8-8-7-7-------------------------8-8-7-7---------|
G|7-7-----------------------9-9-7-7-9-9-7-7-----------------9-9-7-7-|
D|------------------------------------------7-7-9-9-----------------|
A|------------------------------------------------------------------|
d|------------------------------------------------------------------|

e|------------------------------------------------------------------|
B|----10-10-8-8-7-7-8-8-7-7-------------------------8-8-7-7---------|
G|7-7-----------------------9-9-7-7-9-9-7-7-----------------9-9-7-7-|
D|------------------------------------------7-7-9-9-----------------|
A|------------------------------------------------------------------|
d|------------------------------------------------------------------|

e|------------------------------------------------------------|
B|----10-10-8-8-7-7-8-8-7-7-----------------------------------|
G|7-7-----------------------9-9-7-7---------------------------|
D|----------------------------------9-12--9--7--5--7--9--5-7--|
A|----------------------------------9-12--9--7--5--7--9--5-7--|
d|----------------------------------9-12--9--7--5--7--9--5-7--|


[Bridge]

e|-----------|
B|-----------|
G|7----------|
D|7----------|
A|5----------|
d|-----------|

e|0----------|
B|3----------|
G|2----------|
D|0----------|
A|0----------|
d|0----------|

  PM------------------------------  PM------------------------|
e|--------------------------------------------------------------|
B|--------------------------------------------------------------|
G|7------------------------------7------------------------------|
D|7--7-7-7-7-7-7-7-7-7-7-7-7-7-7-7--7-7-7-7-7-7-7-7-7-7-7-7-7-7-|
A|5--5-5-5-5-5-5-5-5-5-5-5-5-5-5-5--5-5-5-5-5-5-5-5-5-5-5-5-5-5-|
d|--------------------------------------------------------------|
  
     PM------------------------|
e|----------------------------------------------x-x-x-x-|
B|----------------------------------------------x-x-x-x-|
G|----------------------------------------------x-x-x-x-|
D|9------------------------------8--------------x-x-x-x-|
A|9--9-9-9-9-9-9-9-9-9-9-9-9-9-9-8--------------x-x-x-x-|
d|9--9-9-9-9-9-9-9-9-9-9-9-9-9-9-8--------------x-x-x-x-|


[Chorus]

e|------------------------------------------------------------------|
B|----10-10-8-8-7-7-8-8-7-7-------------------------8-8-7-7---------|
G|7-7-----------------------9-9-7-7-9-9-7-7-----------------9-9-7-7-|
D|------------------------------------------7-7-9-9-----------------|
A|------------------------------------------------------------------|
d|------------------------------------------------------------------|

e|------------------------------------------------------------------|
B|----10-10-8-8-7-7-8-8-7-7-------------------------8-8-7-7---------|
G|7-7-----------------------9-9-7-7-9-9-7-7-----------------9-9-7-7-|
D|------------------------------------------7-7-9-9-----------------|
A|------------------------------------------------------------------|
d|------------------------------------------------------------------|

e|------------------------------------------------------------------|
B|----10-10-8-8-7-7-8-8-7-7-------------------------8-8-7-7---------|
G|7-7-----------------------9-9-7-7-9-9-7-7-----------------9-9-7-7-|
D|------------------------------------------7-7-9-9-----------------|
A|------------------------------------------------------------------|
d|------------------------------------------------------------------|

e|------------------------------------------------------------|
B|----10-10-8-8-7-7-8-8-7-7-----------------------------------|
G|7-7-----------------------9-9-7-7---------------------------|
D|----------------------------------9-12--9--7--5--7--9--5-7--|
A|----------------------------------9-12--9--7--5--7--9--5-7--|
d|----------------------------------9-12--9--7--5--7--9--5-7--|


[Outro]

e|-----------------------------------------------------------|
B|----10----8-----7-------5-7-5------5-5-5-------------------|
G|7-7---7-7---7-7---7-7-7-------7--7-------7-----------------|
D|--------------------------------------------9--7--7--7-7-7-|
A|-----------------------------------------------------------|
d|-----------------------------------------------------------|

e|-----------------------------------------------------------|
B|----5-----7-----8-----7----5-------------------------------|
G|7-7---7-7---7-7---7-7--7-7----7-7-7-7----------------------|
D|---------------------------------------4--5--5-5-5-5-4-----|
A|-------------------------------------------------------9-7-|
d|-----------------------------------------------------------|


e|-----------------------------------------------------------|
B|----10----8-----7-------5-7-5------5-5-5-------------------|
G|7-7---7-7---7-7---7-7-7-------7--7-------7-----------------|
D|--------------------------------------------9--7--7--7-7-7-|
A|-----------------------------------------------------------|
d|-----------------------------------------------------------|

e|-------------------------------------------------------------|
B|----5-----7-----8-----7----5---------------------------------|
G|7-7---7-7---7-7---7-7--7-7----7----------------9-9--9-11--7\-|
D|-------------------------------------------------------------|
A|-----------------------------------------------7-7--7-9---5\-|
d|-------------------------------------------------------------|



************************************
| \   slide down
| x   Mute note
| PM  Palm Mute
************************************

            
            
Suggest correction
Creating personal tab
Creating personal tab
You can edit any tab online and save it as your Personal.

You can edit, replace or remove any tab part or add personal notes – all changes will be seen only by you.

Personal tabs can be accessed anytime from any device, even offline.
Learn more »
Give kudos to tab author, rate the tab!
1 2 3 4 5
comments
print report bad tab
guest
Wanna post a correction for this tab? Suggest correction