Oops, an error
Loading. Please wait.

Sixth Street tab

version 2
version 2

Whole song

109 views 1 this week
no commentswrite comment
1 2 3 4 5
2 more votes to show rating
add to favorites
×
Save as Personal and add changes to this tab that will be seen only by you. Learn more ›
×
You can save this tab as Personal to edit and correct it or add notes. All changes will be seen only by you. Learn more »
launch autoscroll
font size
0
reset
how to read this tab
guitar tuner
edit
Autoscroll
slow
fast
+/-
esc
set tempo
stop
[Intro]

e|--------------------------------------------------------------------|
B|--------------------------------------------------------------------|
G|4--4-11-11-9-9-11-11-12-12-11-11-9-11-9-7--7-7--7-7-7--7-7-7--7-7-7-|
D|--------------------------------------------------------------------|
A|2--2-9--9--7-7-9--9--10-10-9--9--7-9--7-5--5-5--5-5-5--5-5-5--5-5-5-|
D|--------------------------------------------------------------------|

e|----------------------------------------------------------------------------------|
B|----------------------------------------------------------------------------------|
G|4--4-11-11-9-9-11-11-12-12-11-11-9-11-9-14--14-14--14-14-14--14-14-15-15-15-15-15-|
D|----------------------------------------------------------------------------------|
A|2--2-9--9--7-7-9--9--10-10-9--9--7-9--7-12--12-12--12-12-12--12-12-13-13-13-13-13-|
D|----------------------------------------------------------------------------------|

e|--------------------------------------------------------------------|
B|--------------------------------------------------------------------|
G|4--4-11-11-9-9-11-11-12-12-11-11-9-11-9-7--7-7--7-7-7--7-7-7--7-7-7-|
D|--------------------------------------------------------------------|
A|2--2-9--9--7-7-9--9--10-10-9--9--7-9--7-5--5-5--5-5-5--5-5-5--5-5-5-|
D|--------------------------------------------------------------------|

e|-------------------------------------------------------------------------------------|
B|-------------------------------------------------------------------------------------|
G|4--4-11-11-9-9-11-11-12-12-11-11-9-11-9-14--14-14--14-14-14--14-14-15-15-15-15-15-16\|
D|-------------------------------------------------------------------------------------|
A|2--2-9--9--7-7-9--9--10-10-9--9--7-9--7-12--12-12--12-12-12--12-12-13-13-13-13-13-14\|
D|-------------------------------------------------------------------------------------|


[Chorus]

e|------------------------------------------------|
B|------7-----------5-----------------------------|
G|---7-----7-----7-----7-----7--6--7-----7--6-----|
D|9-----------5-----------7-----------7--------7--|
A|------------------------------------------------|
D|------------------------------------------------|

e|--------------------------------------------------|
B|------7-----------8-----------10-----10-----------|
G|---7-----7-----7-----7-----9------9------9-----9--|
D|9-----------5-----------7-------------------8-----|
A|--------------------------------------------------|
D|--------------------------------------------------|

e|------------------------------------------------|
B|------7-----------5-----------------------------|
G|---7-----7-----7-----7-----7--6--7-----7--6-----|
D|9-----------5-----------7-----------7--------7--|
A|------------------------------------------------|
D|------------------------------------------------|

e|----------------------------------------------------|
B|------7-----------8-----------10-----10-------------|
G|---7-----7-----7-----7-----9------9------9-----9----|
D|9-----------5-----------7-------------------8-----9\|
A|----------------------------------------------------|
D|----------------------------------------------------|


[Verse 2]

  PM------------------------------------------|  PM---------|
e|-----------------------------------------------------------------|
B|-----------------------------------------------------------------|
G|-----------------------------------------------------------------|
D|-----------------------------------------------------------------| x2
A|----9---10---9-------5---9---7-------5---4---0------4---5---4-\2-|
D|9-9---9----9---9-5-5---5---5----0-0---0---0----4-4---4---4-------|

 PM--|   PM-|  PM-|    PM-|   PM-|   PM-|   PM-|   PM-|
e|--------------------------------------------------------|
B|--------------------------------------------------------|
G|--------------------------------7------7----------------|
D|----9------9------5------5--7-7-7--7-7-7------4------4--|
A|9-9-9--9-9-9--5-5-5--5-5-5--5-5-5--5-5-5--4-4-4--4-4-4--|
D|9-9-9--9-9-9--5-5-5--5-5-5----------------4-4-4--4-4-4--|

 PM--|   PM-|  PM-|    PM-|   PM-|   PM-|   PM----------|
e|--------------------------------------------------------|
B|--------------------------------------------------------|
G|--------------------------------7------7----------------|
D|----9------9------5------5--7-7-7--7-7-7----------------|
A|9-9-9--9-9-9--5-5-5--5-5-5--5-5-5--5-5-5--4-4-4-4-4-4-4-|
D|9-9-9--9-9-9--5-5-5--5-5-5----------------4-4-4-4-4-4-4-|


[Chorus]

e|------------------------------------------------|
B|------7-----------5-----------------------------|
G|---7-----7-----7-----7-----7--6--7-----7--6-----|
D|9-----------5-----------7-----------7--------7--|
A|------------------------------------------------|
D|------------------------------------------------|

e|--------------------------------------------------|
B|------7-----------8-----------10-----10-----------|
G|---7-----7-----7-----7-----9------9------9-----9--|
D|9-----------5-----------7-------------------8-----|
A|--------------------------------------------------|
D|--------------------------------------------------|

e|------------------------------------------------|
B|------7-----------5-----------------------------|
G|---7-----7-----7-----7-----7--6--7-----7--6-----|
D|9-----------5-----------7-----------7--------7--|
A|------------------------------------------------|
D|------------------------------------------------|

e|--------------------------------------------------|
B|------7-----------8-----------10-----10-----------|
G|---7-----7-----7-----7-----9------9------9-----9--|
D|9-----------5-----------7-------------------8-----|
A|--------------------------------------------------|
D|--------------------------------------------------|


[Bridge]

e|----------------------------------------------------------|
B|7----7---7----5----5---5----------------------------------|
G|---7---7---7-----7---7---7---4-4-4-4--4-4--4-4--4-4-4-4-4-|
D|-----------------------------4-4-4-4--4-4--4-4--4-4-4-4-4-|
A|-----------------------------2-2-2-2--2-2--2-2--2-2-2-2-2-|
D|----------------------------------------------------------|

e|----------------------------------------------------------|
B|----------------------------------------------------------|
G|7---7---7----9----9---9---9--6-6-6-6--6-6--6-6--6-6-6-6-6-|
D|--7---7---7-----7---7---7----7-7-7-7--7-7--7-7--7-7-7-7-7-|
A|-----------------------------5-5-5-5--5-5--5-5--5-5-5-5-5-|
D|----------------------------------------------------------|

e|----------------------------------------------------------|
B|----------------------------------------------------------|
G|7---7---7----9----9---9---9-------------------------------|
D|--7---7---7-----7---7---7----4-4-4-4--4-4--4-4--4-4-4-4-4-|
A|-----------------------------4-4-4-4--4-4--4-4--4-4-4-4-4-|
D|-----------------------------4-4-4-4--4-4--4-4--4-4-4-4-4-|

                                PM-|  PM-|
e|-------------5--------------------------------------------|
B|------5--------------5-------5-----5-----5----------------|
G|--7------7------7-------7----7-----7-----7------------7-9-|
D|7---7------7------7-------7--7-7-7-7-7-7-7--------7-9-----|
A|----------------------------------------------7-9---------|
D|--------------------------------------------9-------------|


[Guitar Solo]

e|-----------------------------------------------------------------7-10-10br-7----7----------------|
B|----------------------------------------------------10b------10r-------------10----10b-------10r-|
G|9b----9br-7--7-9-7------------------------7-9-9br-7----------------------------------------------|
D|-------------------9~------7-7--9~----7-9--------------------------------------------------------|
A|-----------------------7-9-----------------------------------------------------------------------|
D|-------------------------------------------------------------------------------------------------|

e|-----------------------------------------------------------------------------------------|
B|7h10p7--7--------------------------------------------------------10-10-7-7-----7---------|
G|------h9-h9-7h9-9br-7-9------------------7--9br-7-----9br-----7------------------9-9-----|
D|------------------------------------7-9--------------------9-----------------------------|
A|------------------------------0-7-9----------------------------7-------------------------|
D|-----------------------------------------------------------------------------------------|

e|9/12-10------10--12/14--12-----------7h10p7--7-----------------7-----7-------------------|
B|---------12-----------------15--12---------10---10br-7----7-10----10---10b---------------|
G|-------------------------------------------------------9---------------------------------|
D|-----------------------------------------------------------------------------------------|
A|-----------------------------------------------------------------------------------------|
D|-----------------------------------------------------------------------------------------|


[Chorus]

we'll go to a place...
e|------------------------------|
B|------------------------------|
G|7-7-7-7-7-7-7-7-7-7-7-7-7-7-7-|
D|7-7-7-7-7-7-7-7-7-7-7-7-7-7-7-|
A|5-5-5-5-5-5-5-5-5-5-5-5-5-5-5-|
D|------------------------------|

e|--------------------------------------------------|
B|------7-----------8-----------10-----10-----------|
G|---7-----7-----7-----7-----9------9------9-----9--|
D|9-----------5-----------7-------------------8-----|
A|--------------------------------------------------|
D|--------------------------------------------------|

e|------------------------------------------------|
B|------7-----------5-----------------------------|
G|---7-----7-----7-----7-----7--6--7-----7--6-----|
D|9-----------5-----------7-----------7--------7--|
A|------------------------------------------------|
D|------------------------------------------------|

e|----------------------------------------------------|
B|------7-----------8-----------10-----10-------------|
G|---7-----7-----7-----7-----9------9------9-----9----|
D|9-----------5-----------7-------------------8-----9\|
A|----------------------------------------------------|
D|----------------------------------------------------|


************************************

| b   Bend
| br  Bend release
| /   Slide up
| \   Slide down
| ~   Vibrato

************************************

            
            
Suggest correction
Creating personal tab
Creating personal tab
You can edit any tab online and save it as your Personal.

You can edit, replace or remove any tab part or add personal notes – all changes will be seen only by you.

Personal tabs can be accessed anytime from any device, even offline.
Learn more »
Give kudos to tab author, rate the tab!
1 2 3 4 5
comments
print report bad tab
guest
You may want to rate the tab now too:
select rating
Wanna post a correction for this tab? Suggest correction