Oops, an error
Loading. Please wait.

Bright Side bass

version 2
version 2

Whole song

282 views 3 this week
no commentswrite comment
1 2 3 4 5
3 more votes to show rating
add to favorites
×
Save as Personal and add changes to this tab that will be seen only by you. Learn more ›
×
You can save this tab as Personal to edit and correct it or add notes. All changes will be seen only by you. Learn more »
launch autoscroll
font size
0
reset
guitar tuner
edit
Autoscroll
slow
fast
+/-
esc
set tempo
stop
  in drop d flat
     
 intro
|-----------------------|
|-----------------------|x1
|-----------------------|comes in when he starts
|-7(x16)-10(x16)-2(x24)-|singing bright side the first time

verse one
|---------|
|---------|x1
|---------|
|-0225500-|

|---------------------|
|---------------------|x4
|---------------------|
|-0h222----0h222-7777-|

|-------------------|
|---5-5-5-----------|x1
|-3-------5-5-0-0-0-|
|-------------------|

|-------------------------------------|
|-------------------------------------|x1
|-------------------------------------|
|-0h222----0h222-7777-0h2-555-7770000-|

pre chorus
|-------------|
|-------------|x1
|-3~--5~------|
|---------0~--|

chorus 
there's more to life than sad.......
|---------------------------------------------------------|
|---------------------------------------------------------|x1
|-------------------------------------------3-3-33-3------|
|-2-2-22-22-2-2-5-5-55-55-5-5-0-0-00-00-0-0---------00-00-|

need to find pick myself up off......
|--------------------------------------------------------|
|--------------------------------------------------------|
|-----------------------------5-5-55-55-5-5--------------|
|-2-2-22-22-2-2-5-5-55-55-5-5---------------7-7-77-77-7~\|

verse two
|-----------|
|-----------|x1
|-----------|
|-055577000-|

|---------------------|
|---------------------|x4
|---------------------|
|-0h222----0h222-7777-|

|-------------------|
|---5-5-5-----------|x1
|-3-------5-5-0-0-0-|
|-------------------|

|-----------------------------------------|
|-----------------------------------------|x1
|-----------------------------------------|
|-0h222----0h222/7777-0h222/7777-0000/555-|

|---------------------|
|---------------------|x4
|---------------------|
|-0h222----0h222-7777-|

|-------------------|
|---5-5-5-----------|x1
|-3-------5-5-0-0-0-|
|-------------------|

|---------------------|
|---------------------|x1
|---------------------|
|-0h222----0h222-7777-|

|-----------|
|-----------|x1
|-----------|
|-055577000-|

pre chorus
|-------------|
|-------------|x1
|-3~--5~------|
|---------0~--|

chorus 
there's more to life than sad.......
|---------------------------------------------------------|
|---------------------------------------------------------|x1
|-------------------------------------------3-3-33-3------|
|-2-2-22-22-2-2-5-5-55-55-5-5-0-0-00-00-0-0---------00-00-|

need to find pick myself up off......
|--------------------------------------------------------|
|--------------------------------------------------------|
|-----------------------------5-5-55-55-5-5--------------|
|-2-2-22-22-2-2-5-5-55-55-5-5---------------7-7-77-77-7~\|

bridge
come in right before the singing
|----------|
|----------|x1
|-7~10~5~3-|
|----------|

|----------------|
|----------------|
|-7~7/10~0h5~3~--|
|--------------5\|

chorus 
there's more to life than sad.......
|---------------------------------------------------------|
|---------------------------------------------------------|x1
|-------------------------------------------3-3-33-3------|
|-2-2-22-22-2-2-5-5-55-55-5-5-0-0-00-00-0-0---------00-00-|

need to find pick myself up off......
|-------------------------------------------------------|
|-------------------------------------------------------|
|-----------------------------5-5-55-55-5-5-------------|
|-2-2-22-22-2-2-5-5-55-55-5-5---------------7-7-77-77-7-|

outro
|-----------------------------------------|
|-----------------------------------------|x2
|-----------------------------------------|
|-0h222----0h222/7777-0h222/7777-0000/555-|

end note
|---|
|---|
|---|
|-2~|
 _____________________________________________________________________
|                                                                     |
|   ~ = let ring                                                      |
|   \ = slide down                                                    |
|   / = slide up                                                      |
|   h = hammer on                                                     |
|   p = pull off                                                      |
|   . = palm mute                                                     |
|(x1) = how many times you hit the note (no change in rythem)         |
|  x1 = how many times you hit the set                                |
|  1> = liten to song and hit as long as needed (may change in rythem)|
|                                                                     |
|_____________________________________________________________________|

            
            
Suggest correction
Creating personal tab
Creating personal tab
You can edit any tab online and save it as your Personal.

You can edit, replace or remove any tab part or add personal notes – all changes will be seen only by you.

Personal tabs can be accessed anytime from any device, even offline.
Learn more »
Give kudos to tab author, rate the tab!
1 2 3 4 5
comments
print report bad tab
guest
You may want to rate the tab now too:
select rating
Wanna post a correction for this tab? Suggest correction