Oops, an error
Loading. Please wait.

Gods Army tab

version 2
version 2

Whole song

606 views 1 this week
no commentswrite comment
1 2 3 4 5
x 5
add to favorites
×
Save as Personal and add changes to this tab that will be seen only by you. Learn more ›
×
You can save this tab as Personal to edit and correct it or add notes. All changes will be seen only by you. Learn more »
launch autoscroll
font size
0
reset
how to read this tab
guitar tuner
edit
Autoscroll
slow
fast
+/-
esc
set tempo
stop
============================================================================
                       God's Army - Smile Empty Soul
============================================================================
Tabbed by: kyle
Email: dont_email_me220@yahoo.com <--thats my real email

tunning: Db Ab Db Gb Bb Eb (low to high)

Intro/Verse
Eb|---------------------------------|  |---------------------------------|
Bb|---------------------------------|  |---------------------------------|
Gb|--5---5---7---7---9---9---7---7--|  |--5---5---7---7---9---9---7---7--|
Db|0---0---0---0---0---0---0---0---0|x4|7---7---7---7---7---7---7---7---7|x2
Ab|---------------------------------|  |---------------------------------|
Db|---------------------------------|  |---------------------------------|

Cont.
Eb|---------------------------------|  |---------------------------------|
Bb|---------------------------------|  |---------------------------------|
Gb|--5---5---7---7---9---9---7---7--|  |--5---5---7---7---9---9---7---7--|
Db|0---0---0---0---0---0---0---0---0|x2|7---7---7---7---7---7---7---7---7|x2
Ab|---------------------------------|  |---------------------------------|
Db|---------------------------------|  |---------------------------------|

Chorus
Eb|-----------------------------------------------------------------|
Bb|-----------------------------------------------------------------|
Gb|-----------------------------------------------------------------|
Db|9---------------12---------------5---------------0---------------|x2
Ab|7---------------10---------------5---------------0---------------|
Db|7---------------10---------------5---------------0---------------|
u can figure out the rythem yourself

Preverse(ish)
Eb|---------------------------|
Bb|---------------------------|
Gb|---------------------------|
Db|9------12-12----5-5----7--0|
Ab|7------10-10----5-5----7--0|
Db|7------10-10----5-5----7--0|
i somewhat gave u the rhythem but u still can figure it out on your own
hold out the open durring the wierd screming thingy

Verse 2 (same as verse one)
Chorus 2 (same as chorus one)

Bridge
Eb|---------------------------|
Bb|---------------------------|
Gb|---------------------------|
Db|9------12-12----5-5----9--0|
Ab|7------10-10----5-5----7--0|
Db|7------10-10----5-5----7--0|
Its the same rhythem as the preverse...hold out open and then he sings the words

Chorus 3 same as chorus 1

| /  slide up
| \  slide down
| h  hammer-on
| p  pull-off
| ~  vibrato
| +  harmonic
| x  Mute note

thank you

            
            
Suggest correction
Creating personal tab
Creating personal tab
You can edit any tab online and save it as your Personal.

You can edit, replace or remove any tab part or add personal notes – all changes will be seen only by you.

Personal tabs can be accessed anytime from any device, even offline.
Learn more »
comments
print report bad tab
guest
You may want to rate the tab now too:
select rating
Wanna post a correction for this tab? Suggest correction