Oops, an error
Loading. Please wait.

Morning Light tab

version 2
version 2

Whole song

1,041 views 1 this week
no commentswrite comment
1 2 3 4 5
x 6
add to favorites
×
Save as Personal and add changes to this tab that will be seen only by you. Learn more ›
×
You can save this tab as Personal to edit and correct it or add notes. All changes will be seen only by you. Learn more »
launch autoscroll
font size
0
reset
how to read this tab
guitar tuner
edit
Autoscroll
slow
fast
+/-
esc
set tempo
stop
Artist: Smile Empty Soul
Song: Morning Light
Tabbed by MattCiessan.

Tuning: Drop C#. Db, Ab, Db, Gb, Bb, EB

Intro and Verse
Eb|-----------------------------------------------------------------------|
Bb|-----------------------------------------------------------------------|
Gb|-----0--------0--------------------------------------------------------|
Db|---2---2----2---2------5--------5--------8--------8--------8--------8--|X6
Ab|-3--------3----------5---5----5---5----6---6----6---6----6---6----6---6|
Db|-------------------5--------5--------6--------6--------6--------6------|


Chorus
Eb|-----------------------------------------------------------------------|
Bb|-----------------------------------------------------------------------|
Gb|-55-5555555--33-3333333------------------------------------------------|
Db|-55-5555555--33-3333333--66-66-55-55--33-3333333-----------------------|X2
Ab|-33-3333333--11-1111111--66-66-55-55--33-3333333-----------------------|
Db|-------------------------66-66-55-55--33-3333333-----------------------|
    ^^ ^v^v^v^  ^^ ^v^v^v^  ^^ ^v ^^ ^v  ^^ ^v^v^v^


Intro and Verse
Eb|-----------------------------------------------------------------------|
Bb|-----------------------------------------------------------------------|
Gb|-----0--------0--------------------------------------------------------|
Db|---2---2----2---2------5--------5--------8--------8--------8--------8--|X5
Ab|-3--------3----------5---5----5---5----6---6----6---6----6---6----6---6|
Db|-------------------5--------5--------6--------6--------6--------6------|

Chorus
Eb|-----------------------------------------------------------------------|
Bb|-----------------------------------------------------------------------|
Gb|-55-5555555--33-3333333------------------------------------------------|
Db|-55-5555555--33-3333333--66-66-55-55--33-3333333-----------------------|X2
Ab|-33-3333333--11-1111111--66-66-55-55--33-3333333-----------------------|
Db|-------------------------66-66-55-55--33-3333333-----------------------|
    ^^ ^v^v^v^  ^^ ^v^v^v^  ^^ ^v ^^ ^v  ^^ ^v^v^v^

Bridge
Eb|-----------------------------------------------------------------------|
Bb|-----------------------------------------------------------------------|
Gb|-5555555555555555-------------------------------------------33333333---|
Db|-5555555555555555-2222222222222222-3333333333333333-6666666633333333---|X2
Ab|-3333333333333333-2222222222222222-3333333333333333-6666666611111111---|
Db|------------------2222222222222222-3333333333333333-66666666-----------|

Eb|-----------------------------------------------------------------------|
Bb|-----------------------------------------------------------------------|
Gb|-----------------------------------------------------------------------|
Db|-6666666655555555-3~~~---xx--------------------------------------------|
Ab|-6666666655555555-3~~~---xx--------------------------------------------|
Db|-6666666655555555-3~~~---xx--------------------------------------------|


End Chorus
Eb|-----------------------------------------------------------------------|
Bb|-----------------------------------------------------------------------|
Gb|-55-5555555--33-3333333------------------------------------------------|
Db|-55-5555555--33-3333333--66-66-55-55--33-3333333-----------------------|
Ab|-33-3333333--11-1111111--66-66-55-55--33-3333333-----------------------|
Db|-------------------------66-66-55-55--33-3333333-----------------------|
    ^^ ^v^v^v^  ^^ ^v^v^v^  ^^ ^v ^^ ^v  ^^ ^v^v^v^

Eb|-----------------------------------------------------------------------|
Bb|-----------------------------------------------------------------------|
Gb|-55-5555555--33-3333333------------------------------------------------|
Db|-55-5555555--33-3333333--66-66-55-55-66-66-55-55-66-66-55-55--3~~~2~~~-|
Ab|-33-3333333--11-1111111--66-66-55-55-66-66-55-55-66-66-55-55--3~~~2~~~-|
Db|-------------------------66-66-55-55-66-66-55-55-66-66-55-55--3~~~2~~~-|
    ^^ ^v^v^v^  ^^ ^v^v^v^  ^^ ^v ^^ ^v ^^ ^v ^^ ^v ^^ ^v ^^ ^v

Key:
^ downstroke
v upstroke
~ hold note out
x mute strings

I tabbed this out because all the other tabs were completely wrong or not in depth 
as needed for some players.
Any questions or comments on how to play or improve this, email me at: MattCiessan@hotmail.com

            
            
Suggest correction
Creating personal tab
Creating personal tab
You can edit any tab online and save it as your Personal.

You can edit, replace or remove any tab part or add personal notes – all changes will be seen only by you.

Personal tabs can be accessed anytime from any device, even offline.
Learn more »
comments
print report bad tab
guest
You may want to rate the tab now too:
select rating
Wanna post a correction for this tab? Suggest correction