Oops, an error
Loading. Please wait.

Reflection tab

746 views 1 this week
no commentswrite comment
1 2 3 4 5
x 4
add to favorites
×
Save as Personal and add changes to this tab that will be seen only by you. Learn more ›
×
You can save this tab as Personal to edit and correct it or add notes. All changes will be seen only by you. Learn more »
launch autoscroll
font size
0
reset
how to read this tab
guitar tuner
edit
Autoscroll
slow
fast
+/-
esc
set tempo
stop
Author
Verse
|-----------------------------------------------|
|------3-----------------------------------7----|
|-----2-------------7-7-7-7-7-7-7-7-------------|
|-2-0---------------7-7-7-7-7-7-7-7-5-5-5-----0-|
|-------------------5-5-5-5-5-5-5-5-5-5-5-----0-|
|-----------------------------------5-5-5-----0-|
                                    . . .

|-----------------------------------------------|
|------3----------------------------------------|
|-----2-------------7-7-7-7-7-7-7-7-------------|
|-2-0---------------7-7-7-7-7-7-7-7-5-5-5--7--0-|
|-------------------5-5-5-5-5-5-5-5-5-5-5--7--0-|
|-----------------------------------5-5-5--7--0-|
                                    . . .  .

For the second part of the verse there's a faint rhythm guitar playing this
|------------------------|
|------------------------|
|-5---6-6-6-5-5-5--6-6-6-|
|-5---6-6-6-5-5-5--6-6-6-|
|-3---4-4-4-3-3-3--4-4-4-|
|------------------------|

Pre Chorus
|-----------------------------|
|--------------------------7--|
|---------5-5-5-5-6-6-6-6-----|
|-0-0-0-0-x-x-x-x-x-x-x-x-----|
|-0-0-0-0-3-3-3-3-4-4-4-4-----|
|-0-0-0-0---------------------|

Chorus
|---------------------------------|
|---------------------------------|
|---------5-5-5-5-6-6-6-6-5-5-5-5-|
|-0-0-0-0-5-5-5-5-6-6-6-6-5-5-5-5-|
|-0-0-0-0-3-3-3-3-4-4-4-4-3-3-3-3-|
|-0-0-0-0-------------------------|

Bridge
|-------------------------------------|--------------------|
|-------3--------3--------2--------2--|-3-------2--3-------|
|------2--------2--------1--------1---|-2-------1--2-------|
|-2--0-----2--0-----1--0-----1--0-----|-0-------0--0-------|
|-------------------------------------|--------------------|
|-------------------------------------|--------------------|

Lyrics:
You're closing off to me and showing no emotion
Hey, i'll never give up on you
The song you used to sing is swimming in distortion
Hey, i'll never give up on you

You
You
You

I can't save (save) you (you) from all the things i put you through
Or change who you are because of me
I just hate the things about myself (myself) i see (i see) in you

It's hard to tell if this is real or my reflection
Hey, i'll never give up on you
This negativity is not the right direction
Hey, i'll never give up on you

You
You
You

I can't save (save) you (you) from all the things i put you through
Or change who you are because of me
I just hate the things about myself (myself) i see (i see) in you

Push the end aloud
To let it have your soul
Listen to me now
Never lose control

I can't save (save) you (you) from all the things i put you through
Or change who you are because of me
I just hate the things about myself (myself) i see (i see) in you

You
You
You
You

            
            
Suggest correction
Creating personal tab
Creating personal tab
You can edit any tab online and save it as your Personal.

You can edit, replace or remove any tab part or add personal notes – all changes will be seen only by you.

Personal tabs can be accessed anytime from any device, even offline.
Learn more »
comments
print report bad tab
guest
You may want to rate the tab now too:
select rating
Wanna post a correction for this tab? Suggest correction