Oops, an error
Loading. Please wait.

Saturday tab

2,155 views 1 this week
4 commentsread comments
1 2 3 4 5
x 6
add to favorites
×
Save as Personal and add changes to this tab that will be seen only by you. Learn more ›
×
You can save this tab as Personal to edit and correct it or add notes. All changes will be seen only by you. Learn more »
launch autoscroll
font size
0
reset
how to read this tab
guitar tuner
edit
Autoscroll
slow
fast
+/-
esc
set tempo
stop
Author
Saturday

Smile Empty Soul

Drop C#: C# G# C# F# A# D#

Im not sure if this is right but i gave it a shot. On some of the parts i just put the
chords so it really helps to listen to the song or watch a video of them performing this
song live. Heres the link: http://www.voodoomusicfest.com/video_clickrate/getVideo.php?id=93

Intro pt.1: Clean with effects
D#|------------------------------------------|
A#|------------------------------------------|
F#|------------2--2--------------------------|
C#|-2h4--4--4--------0--4h5--5--5--4h5--5--5-| 2x
G#|------------------------------------------|
C#|------------------------------------------|

Intro pt.2: Distorted
D#|------------------------------------------|
A#|------------------------------------------|
F#|------------2--2--------------------------|
C#|-2h4--4--4--2--2--0--4h5--5--5--4h5--5--5-| 4x
G#|-2h4--4--4--0--0--0--4h5--5--5--4h5--5--5-|
C#|-2h4--4--4--------0--4h5--5--5--4h5--5--5-|

Verse 1: Distorted (Im not sure about the rhythm just listen to the song)
D#|---------------------------------------------------------|
A#|---------------------------------------------------------|
F#|-------------------2-2-2---2-2-2-------------------2-2-2-|
C#|-2/4-4-4---4/5-5-5-2-2-2---2-2-2-2/4-4-4---4/5-5-5-2-2-2-|
G#|-2/4-4-4---4/5-5-5-0-0-0---0-0-0-2/4-4-4---4/5-5-5-0-0-0-|
C#|-2/4-4-4---4/5-5-5---------------2/4-4-4---4/5-5-5-------|

D#|------------------------------------------------------------------|
A#|------------------------------------------------------------------|
F#|-----------2-2-2----------------------------2-2-2-----------2-2-2-|
C#|-x-x-x-x-x-2-2-2--2/4-4-4-x-x-x-x-x-4/5-5-5-2-2-2-x-x-x-x-x-2-2-2-|
G#|-x-x-x-x-x-0-0-0--2/4-4-4-x-x-x-x-x-4/5-5-5-0-0-0-x-x-x-x-x-0-0-0-|
C#|-x-x-x-x-x--------2/4-4-4-x-x-x-x-x-4/5-5-5-------x-x-x-x-x-------|

D#|-----------------------------------|
A#|-----------------------------------|
F#|-------------------2-2-2-----------|
C#|-2/4-4-4---4/5-5-5-2-2-2-x-x-x-x-x-| 
G#|-2/4-4-4---4/5-5-5-0-0-0-x-x-x-x-x-|
C#|-2/4-4-4---4/5-5-5-------x-x-x-x-x-|

Chorus 1: (Im just giving the chords the the rhythm should be easy to figure out again
listen to the song)
D#|-----------------------------------|
A#|-----------------------------------|
F#|-------7--9-------------7--9-------|
C#|-4--0--x--x--7--2----4--x--x--7--2-|
G#|-4--0--5--7--7--2----4--5--7--7--2-|
C#|-4--0--0--0--7--2----4--0--0--7--2-|

Post Chorus:
D#|------------------------------------------|
A#|------------------------------------------|
F#|------------2--2--------------------------|
C#|-2h4--4--4--2--2--0--4h5--5--5--4h5--5--5-| 2x
G#|-2h4--4--4--0--0--0--4h5--5--5--4h5--5--5-|
C#|-2h4--4--4--------0--4h5--5--5--4h5--5--5-|

Verse 2: Distorted
D#|---------------------------------------------------------|
A#|---------------------------------------------------------|
F#|-------------------2-2-2---2-2-2-------------------2-2-2-|
C#|-2/4-4-4---4/5-5-5-2-2-2---2-2-2-2/4-4-4---4/5-5-5-2-2-2-|
G#|-2/4-4-4---4/5-5-5-0-0-0---0-0-0-2/4-4-4---4/5-5-5-0-0-0-|
C#|-2/4-4-4---4/5-5-5---------------2/4-4-4---4/5-5-5-------|

D#|------------------------------------------------------------------|
A#|------------------------------------------------------------------|
F#|-----------2-2-2----------------------------2-2-2-----------2-2-2-|
C#|-x-x-x-x-x-2-2-2--2/4-4-4-x-x-x-x-x-4/5-5-5-2-2-2-x-x-x-x-x-2-2-2-|
G#|-x-x-x-x-x-0-0-0--2/4-4-4-x-x-x-x-x-4/5-5-5-0-0-0-x-x-x-x-x-0-0-0-|
C#|-x-x-x-x-x--------2/4-4-4-x-x-x-x-x-4/5-5-5-------x-x-x-x-x-------|

D#|-----------------------------------|
A#|-----------------------------------|
F#|-------------------2-2-2-----------|
C#|-2/4-4-4---4/5-5-5-2-2-2-x-x-x-x-x-| 
G#|-2/4-4-4---4/5-5-5-0-0-0-x-x-x-x-x-|
C#|-2/4-4-4---4/5-5-5-------x-x-x-x-x-|

Chorus 2:
D#|---------------------------------------------------------|
A#|---------------------------------------------------------|
F#|-------7--9-------------7--9-----------------------------|
C#|-4--0--x--x--7--2----4--x--x--7--2-----------------------|
G#|-4--0--5--7--7--2----4--5--7--7--2-(let this chord ring)-|
C#|-4--0--0--0--7--2----4--0--0--7--2-----------------------|

Bridge: Clean with effects
D#|------------------------------------------|
A#|------------------------------------------|
F#|------------2--2--------------------------|
C#|-2h4--4--4--2--2--0--4h5--5--5--4h5--5--5-| 6x
G#|-2h4--4--4--0--0--0--4h5--5--5--4h5--5--5-|
C#|-2h4--4--4--------0--4h5--5--5--4h5--5--5-|

Distorted:
D#|------------------------------------------|
A#|------------------------------------------|
F#|------------2--2--------------------------|
C#|-2h4--4--4--2--2--0--4h5--5--5--4h5--5--5-| 3x
G#|-2h4--4--4--0--0--0--4h5--5--5--4h5--5--5-|
C#|-2h4--4--4--------0--4h5--5--5--4h5--5--5-|

Then do this chord: (again just the chord)
D#|---|
A#|---|
F#|---|
C#|-4-|
G#|-4-|
C#|-4-|

Chorus 3:
D#|-----------------------------------|
A#|-----------------------------------|
F#|-------7--9-------------7--9-------|
C#|-4--0--x--x--7--2----4--x--x--7--2-|
G#|-4--0--5--7--7--2----4--5--7--7--2-|
C#|-4--0--0--0--7--2----4--0--0--7--2-|

D#|-----------------------------------------------------|
A#|-----------------------------------------------------|
F#|-------7--9-------------7--9-------------------------|
C#|-4--0--x--x--7--2----4--x--x--7--2-------------------|
G#|-4--0--5--7--7--2----4--5--7--7--2-(bend this chord)-|
C#|-4--0--0--0--7--2----4--0--0--7--2-------------------|

Outro: Distorted
D#|------------------------------------------|
A#|------------------------------------------|
F#|------------2--2--------------------------|
C#|-2h4--4--4--2--2--0--4h5--5--5--4h5--5--5-| 3x
G#|-2h4--4--4--0--0--0--4h5--5--5--4h5--5--5-|
C#|-2h4--4--4--------0--4h5--5--5--4h5--5--5-|

Then this chord: (just the chord)
D#|---|
A#|---|
F#|---|
C#|-4-|
G#|-4-|
C#|-4-|


            
            
Suggest correction
Creating personal tab
Creating personal tab
You can edit any tab online and save it as your Personal.

You can edit, replace or remove any tab part or add personal notes – all changes will be seen only by you.

Personal tabs can be accessed anytime from any device, even offline.
Learn more »
comments
print report bad tab
4 comments total. Showing first comments.
0 reply
Discouraged 10 Aug 21, 2006 07:31 AM

I've only looked at the intro, and t sounds pretty cool to me. I think the rating is a little low, to be honest. =/
You've put alot of work into it me thinks.

-1 reply
cam507 61 Mar 06, 2007 04:21 PM

D#|------------------------------------------|
A#|------------------------------------------|
F#|------------------------------------------|
C#|-2h4--4--4--7--7--0--4h5--5--5--4h5--5--5-| x4
G#|-2h4--4--4--7--7--0--4h5--5--5--4h5--5--5-|
C#|-2h4--4--4--7--7--0--4h5--5--5--4h5--5--5-|

this is a good tab. might be a little easier this way though this is how i saw sean play it live on a youtube video....he just uses 7's on the top 3 strings instead of the other chord on the 5th, 4th and 3rd strinngs. good tab though :)

+1 reply
jasonstatement 10 Nov 13, 2008 02:32 PM

I think the verse is a little different

D#|------------------------------------
A#|------------------------------------
F#|---------------------------2--------
C#|-2/4-4-4---4/5-5-5-0-0-0---2-0-0----
G#|-2/4-4-4---4/5-5-5-0-0-0---0-0-0----
C#|-2/4-4-4---4/5-5-5-0-0-0-----0-0----

is how i think it sounds.

guest
You may want to rate the tab now too:
select rating
Wanna post a correction for this tab? Suggest correction