Oops, an error
Loading. Please wait.

Silhouettes tab

version 2
version 2

Whole song

Interactive

2,684 views 3 this week
no commentswrite comment
1 2 3 4 5
x 3
add to favorites
×
Save as Personal and add changes to this tab that will be seen only by you. Learn more ›
×
You can save this tab as Personal to edit and correct it or add notes. All changes will be seen only by you. Learn more »
launch autoscroll
font size
0
reset
how to read this tab
guitar tuner
edit
Autoscroll
slow
fast
+/-
esc
set tempo
stop
Author
Artist: Smile Empty Soul
Song: Silhouettes
Tuning: Half-Step Down

Intro/Verse 1
Lead&Rhythm
D#---------------------------------------------------------------------------|
A#--------------------------------------------------3--------------3---------|
F#-----0---3p0---0------------2p0------0--------5-----5---5------5---5-------|
C#---5-------------------3--------------------5---5-----5------5-------5-----|
G#-5-----5-----5-------3---3----------------3----------------3-----------0---|
C#-------------------3--------------3----------------------------------------|

Chorus
Lead&Rhythm
D#---------------------------------------------------------------------------|
A#---------------------------------------------------------------------------|
F#---------3---------------5-------------7---------------2-------------------|
C#-----1-----1---1-----3-----3---3-----5---5---5-----0-----0---0-------------|
G#---1---1-----1-----3---3-----3-----5-------5-----0---0-----0---------------|
C#-1---------------3---------------5-------------0---------------------------|

Play this after the chorus before Verse 2
Lead
D#---------------------------------------------------------------------------|
A#--------------------------------------------------3--------------3---------|
F#-----0---3p0---0------------2p0------0--------5-----5---5------5---5-------|
C#---5-------------------3--------------------5---5-----5------5-------5-----|
G#-5-----5-----5-------3---3----------------3----------------3-----------0---|
C#-------------------3--------------3----------------------------------------|

Rhythm
After the chorus while lead is playing intro again, Rhythm does this
D#---------------------------------------------------------------------------|
A#-11-------------------------10~--------------------------------------------|
F#---------------------------------------------------------------------------|
C#---------------------------------------------------------------------------|
G#---------------------------------------------------------------------------|
C#---------------------------------------------------------------------------|

Verse 2
Lead&Rhythm (You figure out strum pattern, too long to type)
D#-----------3---------------------------------------------------------------|
A#-----------3---------------------------------------------------------------|
F#-5---------5---------------------------------------------------------------|
C#-3----3----5---------------------------------------------------------------|
G#-3----3----3---------------------------------------------------------------|
C#------3--------------------------------------------------------------------|

Verse 2 cont.
Lead&Rhythm
D#---------------------------------------------------------------------------|
A#--------------------------------------------------3--------------3---------|
F#-----0---3p0---0------------2p0------0--------5-----5---5------5---5-------|
C#---5-------------------3--------------------5---5-----5------5-------5-----|
G#-5-----5-----5-------3---3----------------3----------------3-----------0---|
C#-------------------3--------------3----------------------------------------|

Verse 2 cont.
Lead&Rhythm (You figure out strum pattern, too long to type)
D#-----------3---------------------------------------------------------------|
A#-----------3---------------------------------------------------------------|
F#-5---------5---------------------------------------------------------------|
C#-3----3----5---------------------------------------------------------------|
G#-3----3----3---------------------------------------------------------------|
C#------3--------------------------------------------------------------------|

Verse 2 cont.
Lead&Rhythm
D#---------------------------------------------------------------------------|
A#--------------------------------------------------3--------------3---------|
F#-----0---3p0---0------------2p0------0--------5-----5---5------5---5-------|
C#---5-------------------3--------------------5---5-----5------5-------5-----|
G#-5-----5-----5-------3---3----------------3----------------3-----------0---|
C#-------------------3--------------3----------------------------------------|

Chorus
Lead&Rhythm
D#---------------------------------------------------------------------------|
A#---------------------------------------------------------------------------|
F#---------3---------------5-------------7---------------2-------------------|
C#-----1-----1---1-----3-----3---3-----5---5---5-----0-----0---0-------------|
G#---1---1-----1-----3---3-----3-----5-------5-----0---0-----0---------------|
C#-1---------------3---------------5-------------0---------------------------|

After 2nd Chorus, play this (You figure out strum pattern)
D#---------------------------------------------------------------------------|
A#---------------------------------------------------------------------------|
F#-3-----------5-------------------------------------------------------------|
C#-1-----------3-------------------------------------------------------------|
G#-1-----------3-------------------------------------------------------------|
C#-1-----------3-------------------------------------------------------------|

Verse 3
Lead&Rhythm
D#---------------------------------------------------------------------------|
A#----------------------1----------------------------------------------------|
F#-------0-----------3-----3-------5-----5-5--5-5---5\3--3-3-----------------|
C#----------5-----3-------------------3--3-3--5-5-0-5\3--3-3-----------------|
G#----5--------1----------------3--------3-3--3-3-0-3\1--1-1-----------------|
C#-5-------------------------3-----------3-3------0--------------------------|

Verse 3 cont.
Lead&Rhythm
D#---------------------------------------------------------------------------|
A#---------------------------------------------------------------------------|
F#-------3-----------5-----------7-----7-7---2-2---2-------------------------|
C#----------1-----------3-----------5--5-5---0-0---0-------------------------|
G#----1-----------3-----------5--------5-5---0-0---0-------------------------|
C#-1-----------3-----------5-----------5-5---0-0---0-------------------------|

Verse 3 cont.
Lead&Rhythm (You figure out Rhythm, too long to type)
D#---------------------------------------------------------------------------|
A#---------------------------------------------------------------------------|
F#------3---------5-5---5\3--3-3----3----5----7----2-------------------------|
C#-5----3----3----5-5-0-5\3--3-3----1----3----5----0-------------------------|
G#-5----1----3----3-3-0-3\1--1-1----1----3----5----0-------------------------|
C#-5---------3--------0-------------1----3----5----0(Let Ring)---------------|

Rhythm plays this as Lead rings out
D#---------------------------------------------------------------------------|
A#--------------------------------------------------------------10(BU)-------|
F#----------------------------------------------------------/10--------------|
C#---------------------------------------------------------------------------|
G#---------------------------------------------------------------------------|
C#---------------------------------------------------------------------------|

Final Chorus
Lead&Rhythm
D#---------------------------------------------------------------------------|
A#---------------------------------------------------------------------------|
F#-3---------5----------7---------2------------------------------------------|
C#-1---------3----------5---------0------------------------------------------|
G#-1---------3----------5---------0------------------------------------------|
C#-1---------3----------5---------0------------------------------------------|

D#---------------------------------------------------------------------------|
A#---------------------------------------------------------------------------|
F#-3---------5----------7---------2------------------------------------------|
C#-1---------3----------5---------0------------------------------------------|
G#-1---------3----------5---------0------------------------------------------|
C#-1---------3----------5---------0------------------------------------------|

D#---------------------------------------------------------------------------|
A#---------------------------------------------------------------------------|
F#-3---------5----------7---------2------------------------------------------|
C#-1---------3----------5---------0------------------------------------------|
G#-1---------3----------5---------0------------------------------------------|
C#-1---------3----------5---------0------------------------------------------|

  I Dont Wanna Live Like My Father.....I Dont Wanna
D#---------------------------------------------------------------------------|
A#---------------------------------------------------------------------------|
F#-3---------5----------7---------2-2----------------------------------------|
C#-1---------3----------5---------0-0---------------12\----------------------|
G#-1---------3----------5---------0-0---------------12\----------------------|
C#-1---------3----------5---------0-0---------------12\----------------------|
                                  . .

End Final Chorus with this
Lead
D#---------------------------------------------------------------------------|
A#---------------------------------------------------------------------------|
F#-3---------5---------------------------------------------------------------|
C#-1---------3---------------------------------------------------------------|
G#-1---------3---------------------------------------------------------------|
C#-1---------3---------------------------------------------------------------|

I'm not too sure what Rhythm is doing at this part, if you know it, plz let me know so I 
put it on here

Play this at the end and steadily start slowing down towards the end of it
D#-----------------------------------------------------------|
A#--------------------------------------------------3--------|
F#-----0---3p0---0------------2p0------0--------5-----5---5--|
C#---5-------------------3--------------------5---5-----5----|
G#-5-----5-----5-------3---3----------------3----------------|
C#-------------------3--------------3------------------------|

U have any Q's AIM me at Zerobullshat@aol.com

            
            
Suggest correction
Creating personal tab
Creating personal tab
You can edit any tab online and save it as your Personal.

You can edit, replace or remove any tab part or add personal notes – all changes will be seen only by you.

Personal tabs can be accessed anytime from any device, even offline.
Learn more »
Give kudos to tab author, rate the tab!
1 2 3 4 5
comments
print report bad tab
guest
You may want to rate the tab now too:
select rating
Wanna post a correction for this tab? Suggest correction