Oops, an error
Loading. Please wait.

The Planets Bend Between Us tab

version 1
version 1

Whole song

9,342 views 3 this week
5 commentsread comments
1 2 3 4 5
x 5
add to favorites
×
Save as Personal and add changes to this tab that will be seen only by you. Learn more ›
×
You can save this tab as Personal to edit and correct it or add notes. All changes will be seen only by you. Learn more »
launch autoscroll
font size
0
reset
how to read this tab
guitar tuner
edit
Autoscroll
slow
fast
+/-
esc
set tempo
stop
This is one of the best songs on the album and was easy to tab...leave your comments:)

Capo 2

Intro

e--X-----X-------X--------------------|
B--X-----X-------X--------------------|
G--0-----X-------X--------------------|
D--X-----X-------X--------------------|
A--2-----0-------3--------------------| X2 arranged for piano
E--3-----3-------3--------------------|


VESRE

 (G)    (Asus) (C/G)
e-------------------------------------|
B-------------------------------------|
G-------------------------------------|
D-------------------------------------|
A--2---2---0---0---3---3---3---3------| play 16 times until Chorus
E----3---3---3---3---3---3---3---3----|

   The winter's marked the Earth......


Chorus

 G      Am     F

G   320013
Am  x02213
F   x33013

            
            
Suggest correction
Creating personal tab
Creating personal tab
You can edit any tab online and save it as your Personal.

You can edit, replace or remove any tab part or add personal notes – all changes will be seen only by you.

Personal tabs can be accessed anytime from any device, even offline.
Learn more »
comments
print report bad tab
5 comments total. Showing first comments.
0 reply
Sc-fi-lullaby 237 Apr 03, 2009 10:26 AM

Great song, great work! 5 stars :)
saved me 5 mins tabbing anyway :P

0 reply
Lucas1989 10 May 14, 2009 02:06 AM

There is also this little bit in the verse after the first chorus which is repeated to the end of the song:

e----7---------------------5-------|
B---------5-----7-----5------------|

0 reply
dark_shadow 10 Jun 04, 2009 08:46 AM

Great job on the tab thanks!

guest
You may want to rate the tab now too:
select rating
Wanna post a correction for this tab? Suggest correction