Oops, an error
Loading. Please wait.

B A Nobody Acoustic tab

by Soak
3,061 views 27 this week
1 commentread comment
1 2 3 4 5
1 last vote to show rating
add to favorites
×
Save as Personal and add changes to this tab that will be seen only by you. Learn more ›
×
You can save this tab as Personal to edit and correct it or add notes. All changes will be seen only by you. Learn more »
launch autoscroll
font size
0
reset
how to read this tab
guitar tuner
edit
Autoscroll
slow
fast
+/-
esc
set tempo
stop
Author
Difficulty
Its in standard tuning except you tune the A string down a whole step to G.
Also any time you are playing the G or B string if its not an open note you want to accent that pretty heavy.
Here is the performance for reference of tempo and what not: https://www.youtube.com/watch?v=pVvyo8AUthA


[Intro] (x2)

e|---------------------------------------------------------------------------------------------------|
B|---------------------------------------------------------------------------------------------------|
G|------0------12-----11----0-------0-------17-------16-----0----------0-------7-------4-------------|
D|----------------------------------------------------------------------------------------------7----|
G|--/9-----9-------9------9---9/12------12-------12------12-----12/5-------5-------5-------5---------|
E|---------------------------------------------------------------------------------------------------|

                                       [On the second time add this to the end]
e|------------------------------------|--------------------------------------------------------------------|
B|------------------------------------|--------------------------------------------------------------------|
G|-----5------7--------5-------4-----0|----0------7------4-----------------5------7-------5-------4------0-|
D|------------------------------------|---------------------------7----------------------------------------|
G|-5-----5--------5-------5-------5---|-5------5------5-------5-------5-------5-------5-------5-------5----|
E|------------------------------------|--------------------------------------------------------------------|


[Verse] (x2)

E|-----------------------------------------------------------------------------------------------------------|
B|-----------------------------------------------------------------------------------------------------------|
G|----0-----0------0------0--------0-------0-------0-------0----------0------0------0------0-------0------0--|
D|-----------------------------------------------------------------------------------------------------------|
G|-9-----9-----9-----9-------9/12-----12------12------12-------12/5------5------5------5-------5------5------|
E|-----------------------------------------------------------------------------------------------------------|

e|--------------------|
B|--------------------|
G|-----0------0-------|
D|--------------------|
G|-4------4-----------|
E|--------------------|


[Intro] (x1)

e|---------------------------------------------------------------------------------------------------|
B|---------------------------------------------------------------------------------------------------|
G|------0------12-----11----0-------0-------17-------16-----0----------0-------7-------4-------------|
D|----------------------------------------------------------------------------------------------7----|
G|--/9-----9-------9------9---9/12------12-------12------12-----12/5-------5-------5-------5---------|
E|---------------------------------------------------------------------------------------------------|

e|-----------------------------------------|
B|-----------------------------------------|
G|-----5-------7---------5--------4------0-|
D|-----------------------------------------|
G|-5------5---------5--------5--------5----|
E|-----------------------------------------|


[Verse](x2)                                                      
                                                               |[DONT PLAY THIS ON SECOND TIME THROUGH]
e|-------------------------------------------------------------|---------------------------------------------|
B|-------------------------------------------------------------|---------------------------------------------|
G|----0-----0------0------0--------0-------0-------0-------0---|------0------0------0------0-------0------0--|
D|-------------------------------------------------------------|---------------------------------------------|
G|-9-----9-----9-----9-------9/12-----12------12------12-------|12/5------5------5------5-------5------5-----|
E|-------------------------------------------------------------|---------------------------------------------|


[Pre-Chorus]

e|---------------------------------------------------------------------------------------------------|
B|---------------------------------------------------------------------------------------------------|
G|-----0-------7------5---------0----------0--------5--------4----------0---------2------------------|
D|---------------------------------------------------------------------------------------------------|
G|-5------5-------5--------5--------5/4--------4--------4---------4---------4/2----------------------|
E|---------------------------------------------------------------------------------------------------|


[Chorus] (x4)

e|---------------------------------------------------------------------------------------------------|
B|----5-----5-----5-----5-------4------4------4------4--------10--------10-------10-------10---------|
G|---------------------------------------------------------------------------------------------------|
D|---------------------------------------------------------------------------------------------------|
A|-5-----5-----5----5-------3------3------3------3-------11--------11--------11-------11-------------|
E|---------------------------------------------------------------------------------------------------|

e|------------------------------------------------|
B|-----13-------12------10-------12--------0------|
G|------------------------------------------------|
D|------------------------------------------------|
G|-11------11------11-------11--------11----------|
E|------------------------------------------------|


[Chorus] 5th time

e|---------------------------------------------------------------------------------------------------|
B|----5-----5-----5-----5-------4------4------4------4--------7--------7-------7-------7-------------|
G|---------------------------------------------------------------------------------------------------|
D|---------------------------------------------------------------------------------------------------|
G|-5-----5-----5----5-------3------3------3------3-------7--------7--------7-------7-------7---------|
E|---------------------------------------------------------------------------------------------------|


[Intro] (x1)

e|---------------------------------------------------------------------------------------------------|
B|---------------------------------------------------------------------------------------------------|
G|------0------12-----11----0-------0-------17-------16-----0----------0-------7-------4-------------|
D|----------------------------------------------------------------------------------------------7----|
G|--/9-----9-------9------9---9/12------12-------12------12-----12/5-------5-------5-------5---------|
E|---------------------------------------------------------------------------------------------------|

e|-----------------------------------------|
B|-----------------------------------------|
G|-----5-------7---------5--------4------0-|
D|-----------------------------------------|
G|-5------5---------5--------5--------5----|
E|-----------------------------------------|


[Verse] (x2)

E|-----------------------------------------------------------------------------------------------------------|
B|-----------------------------------------------------------------------------------------------------------|
G|----0-----0------0------0--------0-------0-------0-------0----------0------0------0------0-------0------0--|
D|-----------------------------------------------------------------------------------------------------------|
G|-9-----9-----9-----9-------9/12-----12------12------12-------12/5------5------5------5-------5------5------|
E|-----------------------------------------------------------------------------------------------------------|

e|--------------------|
B|--------------------|
G|-----0------0-------|
D|--------------------|
G|-4------4-----------|
E|--------------------|


[Intro] (x1)

She plays the intro but this is technically still the verse.. She uses the intro to follow the vocals

e|---------------------------------------------------------------------------------------------------|
B|---------------------------------------------------------------------------------------------------|
G|------0------12-----11----0-------0-------17-------16-----0----------0-------0-------0-------0-----|
D|---------------------------------------------------------------------------------------------------|
G|--/9-----9-------9------9---9/12------12-------12------12-----12/5-------5-------5-------5---------|
E|---------------------------------------------------------------------------------------------------|

e|---------------------------------|
B|---------------------------------|
G|----0------0------0------0-------|
D|---------------------------------|
G|-5-----5------4------4-----------|
E|---------------------------------|


[Verse](x1)

E|-------------------------------------------------------------|
B|-------------------------------------------------------------|
G|----0-----0------0------0--------0-------0-------0-------0---|
D|-------------------------------------------------------------|
G|-9-----9-----9-----9-------9/12-----12------12------12-------|
E|-------------------------------------------------------------|


[Pre-Chorus]

e|---------------------------------------------------------------------------------------------------|
B|---------------------------------------------------------------------------------------------------|
G|-----0-------7------5---------0----------0--------5--------4----------0---------2------------------|
D|---------------------------------------------------------------------------------------------------|
G|-5------5-------5--------5--------5/4--------4--------4---------4---------4/2----------------------|
E|---------------------------------------------------------------------------------------------------|


[Chorus] (x4)

e|---------------------------------------------------------------------------------------------------|
B|----5-----5-----5-----5-------4------4------4------4--------10--------10-------10-------10---------|
G|---------------------------------------------------------------------------------------------------|
D|---------------------------------------------------------------------------------------------------|
G|-5-----5-----5----5-------3------3------3------3-------11--------11--------11-------11-------------|
E|---------------------------------------------------------------------------------------------------|

e|------------------------------------------------|
B|-----13-------12------10-------12--------0------|
G|------------------------------------------------|
D|------------------------------------------------|
G|-11------11------11-------11--------11----------|
E|------------------------------------------------|


[Chorus] 5th time

e|---------------------------------------------------------------------------------------------------|
B|----5-----5-----5-----5-------4------4------4------4--------7--------7-------7-------7-------------|
G|---------------------------------------------------------------------------------------------------|
D|---------------------------------------------------------------------------------------------------|
G|-5-----5-----5----5-------3------3------3------3-------7--------7--------7-------7-------7---------|
E|---------------------------------------------------------------------------------------------------|


[Bridge] (x2)

e|-----------------------------------------------------------------------------------------------------------|
B|-----------------------------------------------------------------------------------------------------------|
G|------0----------0---------0----------0----------0-------0------0-------0-------0-------0-------0-------0--|
D|-----------------------------------------------------------------------------------------------------------|
G|-12-------12/7-------7/9-------9/4--------4/2-------2--------2------2-------2-------2-------2--------2-----|
E|-----------------------------------------------------------------------------------------------------------|


[Chorus] (x4)

e|---------------------------------------------------------------------------------------------------|
B|----5-----5-----5-----5-------4------4------4------4--------10--------10-------10-------10---------|
G|---------------------------------------------------------------------------------------------------|
D|---------------------------------------------------------------------------------------------------|
G|-5-----5-----5----5-------3------3------3------3-------11--------11--------11-------11-------------|
E|---------------------------------------------------------------------------------------------------|

e|------------------------------------------------|
B|-----13-------12------10-------12--------0------|
G|------------------------------------------------|
D|------------------------------------------------|
G|-11------11------11-------11--------11----------|
E|------------------------------------------------|


************************************

| /  Slide up

************************************

            
            
Suggest correction
Creating personal tab
Creating personal tab
You can edit any tab online and save it as your Personal.

You can edit, replace or remove any tab part or add personal notes – all changes will be seen only by you.

Personal tabs can be accessed anytime from any device, even offline.
Learn more »
Give kudos to tab author, rate the tab!
1 2 3 4 5
comments
print report bad tab
1 comment total.
0 reply
necriononguitar 3,062 Oct 07, 2016 06:07 AM

In the chorus you have the low G and high B strings confused for the second chord.

guest
You may want to rate the tab now too:
select rating
Wanna post a correction for this tab? Suggest correction