Oops, an error
Loading. Please wait.

Sea Creatures tab

version 1
version 1

Whole song

by Soak
14,134 views 30 this week
4 commentsread comments
1 2 3 4 5
x 20
add to favorites
×
Save as Personal and add changes to this tab that will be seen only by you. Learn more ›
×
You can save this tab as Personal to edit and correct it or add notes. All changes will be seen only by you. Learn more »
launch autoscroll
font size
0
reset
how to read this tab
guitar tuner
edit
Autoscroll
slow
fast
+/-
esc
set tempo
stop
Author
Sea Creatures By Soak
She is an Irish artist from Derry
Rate this fairly as it is my first tab

[Intro]

e|-----x------------x-----------------x----x-----x--------------------------|
B|-----x------------x-----------------x----x-----x--------------------------|
G|-----x-----6p4----x----6p4----------x----x-----x--------------------------|
D|---6-x--4-------6-x--4--------------x----x-----x---------9----------------|
A|---0-x--0-------0-x--0------------9-x--7-x---9-x--9/11-----11-------------|
E|------x------------x--------------0-x--0-x---0-x--0-----------------------|

Main Riff

e|------x------------x-----------------x----x-----x--------------------------|
B|------x------------x-----------------x----x-----x--------------------------|
G|------x------------x-----------------x----x-----x--------------------------|
D|----6-x--4-------6-x--4--------------x----x-----x--------------------------|
A|----0-x--0-------0-x--0------------9-x--7-x---9-x--7-----------------------|
E|------x------------x---------------0-x--0-x---0-x--0-----------------------|

"I CRY FOR YOU" outro part

e|----4-x--2-------4-x--2--------------x----x--------x----x------------------|
B|------x------------x-----------------x----x--------x----x------------------|
G|------x------------x-----------------x----x--------x----x------------------|
D|----6-x--4-------6-x--4------------9-x--6-x------9-x--6-x------------------|
A|----0-x--0-------0-x--0------------7-x--7-x------7-x--7-x------------------|
E|------x------------x-----------------x----x--------x----x------------------|

Listen to the real thing!!!

http://www.youtube.com/watch?v=PQSTAI3VR2Q



************************************

| x  Dead note
| p  Pull-off
| /  Slide up

************************************

            
            
Suggest correction
Creating personal tab
Creating personal tab
You can edit any tab online and save it as your Personal.

You can edit, replace or remove any tab part or add personal notes – all changes will be seen only by you.

Personal tabs can be accessed anytime from any device, even offline.
Learn more »
comments
print report bad tab
4 comments total. Showing first comments.
0 reply
astratoidi 10 Dec 16, 2013 04:07 AM

i wish i would go on ireland. on a cliff watching dolphins. only because of this song^^

0 reply
FrancisPoquita 47 Dec 03, 2014 12:03 AM

In the intro part, the 6h4 should be a pull off, edit it and change it to 6p4, cuz it's really impossible to hammer from the 6th to 4th hahaha, anyways great tab!

0 reply
ernestduffoo 10 Aug 13, 2015 09:11 AM

please someone post b a nobody

guest
You may want to rate the tab now too:
select rating
Wanna post a correction for this tab? Suggest correction