Oops, an error
Loading. Please wait.

Tensionado chords

version 4
version 4

Whole song

42,184 views 186 this week
3 commentsread comments
1 2 3 4 5
x 13
add to favorites
×
Save as Personal and add changes to this tab that will be seen only by you. Learn more ›
×
You can save this tab as Personal to edit and correct it or add notes. All changes will be seen only by you. Learn more »
launch autoscroll
font size
0
reset
transpose
0
reset
display chords
guitar tuner
edit
Autoscroll
slow
fast
+/-
esc
set tempo
stop
Author
Difficulty
Strumming
There is no strumming pattern for this song yet. and get +5 IQ
Note: yung shifting ng C#m papuntang Cm mabilis lang. pag nasa Cm na dalawang bagsakang 
strum lang. ganun dn gngawa sa intro at verse.

      A         C#m          Cm         Bm         D        E
e|---------|-----4------|----3----|-----2-----|----2----|-------|
B|----0----|-----5------|----4----|-----3-----|----3----|-------|
G|----2----|-----6------|----5----|-----4-----|----2----|---1---|
D|----2----|-----6------|----5----|-----4-----|----0----|---2---|
A|---------|-----4------|----3----|-----2-----|---------|---2---|
E|---------|-----4------|----3----|-----------|---------|---0---|

[Intro]

A C#m Cm Bm D E


[Verse]

A             C#m
Tensionado nagulat din ako
Cm     Bm          D             E
Nung malaman na hindi lang pala ako
           A               C#m
Yung nanghinayang nung nag away tayo nun
   Cm  Bm        D            E
At natuluyan sa iyakan at tampo


[Bridge]

      D             C#m
Sandali lang wag ka munang magsalita
          D          C#m
Di ko hahayaan lahat ito ay mawala
       Bm            D\Dm            ---
Ang iniisip ko kung pwede pa ba tayo

e|---------------------------------|
B|---------------------------------|
G|---------------------------------|
D|---------------------------------|
A|---0--5/7--5--4---5--0-----------|
E|------------------------2--------|

(NOTE: pagkatapos nung huling 2, do intro chords agad...)


[Verse]

A             C#m
At miserable paulit-ulit lang
Cm     Bm          D             E
Ang nangyayari paikot-ikot tayong
           A               C#m
Parang bote at nasanay ka na ba dun
   Cm  Bm        D            E
At nalimutan ang aking mga tanong


[Brdge]

      D             C#m
At hindi malinaw pwede bang wag kang sumigaw
          D          C#m
Di ko hahayaan lahat ito ay maligaw
       Bm            D\Dm
Nagtatanong sayo kung pwede pa ba tayo


(sa adlib parehas lang sa intro chords)


     D              C#m
Sandali lang wag ka munang magsalita
          D           C#m
Di ko hahayaan lahat ito ay mawala
     D             C#m
Sandali lang wag ka munang magsalita
          D           C#m
Di ko hahayaan pati ikaw ay mawala
        Bm             D
Nagtatanong sayo kung pwede pa ba tayo

e|---------------------------------|
B|---------------------------------|
G|---------------------------------|
D|---------------------------------|
A|---0--5/7--5--4---5--0-----------|
E|------------------------2--------|

[OUTRO] A x3

            
            
Suggest correction
Creating personal tab
Creating personal tab
You can edit any tab online and save it as your Personal.

You can edit, replace or remove any tab part or add personal notes – all changes will be seen only by you.

Personal tabs can be accessed anytime from any device, even offline.
Learn more »
comments
print report bad tab
3 comments total.
0 reply
albertpalconet 279 Mar 17, 2015 08:22 AM

daming higher rated na version pero this one is the most correct one..

0 reply
jeremiah.e.aguilar 10 Oct 22, 2015 02:26 AM

Eto ang tama ang chord progression, yung pinakamataas ang rating ay maling mali.

0 reply
patrickgayanilo 10 Nov 28, 2017 10:51 PM

This is the correct progression

guest
You may want to rate the tab now too:
select rating
Wanna post a correction for this tab? Suggest correction