Oops, an error
Loading. Please wait.

Catflap tab

by Sobs
88 views 3 this week
no commentswrite comment
1 2 3 4 5
3 more votes to show rating
add to favorites
×
Save as Personal and add changes to this tab that will be seen only by you. Learn more ›
×
You can save this tab as Personal to edit and correct it or add notes. All changes will be seen only by you. Learn more »
launch autoscroll
font size
0
reset
how to read this tab
guitar tuner
edit
Autoscroll
slow
fast
+/-
esc
set tempo
stop
E
    C               Am               G         Bm
e|--10--------------10--------10---------------------------------------------|
B|-----8---8--8---8----8---8-----8------8----8-------------------------------|
G|-------9------9--------9---------9h11---11---7---7----7--------------------|
D|-----------------------------------------------9---9----9------------------|
A|---------------------------------------------------------------------------|
E|---------------------------------------------------------------------------|

    C               Am               G         Bm
e|--10--------------10--------10----------------------10---------------------|
B|-----8---8--8---8----8---8-----8------8----8-10--12----12--12-10-----------|
G|-------9------9--------9---------9h11---11-----------------------12--------|
D|---------------------------------------------------------------------------|
A|---------------------------------------------------------------------------|
E|---------------------------------------------------------------------------|

C
  i guess you've changed your mind again
G
  at least we can still be friends but
    Bm           Am
e|--------10--12-----|
B|--12-----------10--|
    don't let me down
            Bm           Am
e|----------------10--12-14b--|
B|--12/10---12----------------|
    darling don't let me down cause i might lose my way
C
  so many things I don't care enough 
G
  too many things I care in 
    Bm           Am
   e|-----10- 12----|
   B|--12-------10--|
    preceding amounts 
            Bm           Am
e|---------------10-12- 14b--|
B|--12/10---12---------------|
            sums up how I feel about myself 

    C               Am               G         Bm
e|--10--------------10--------10---------------------------------------------|
B|-----8---8--8---8----8---8-----8------8----8-------------------------------|
G|-------9------9--------9---------9h11---11---7---7----7--------------------|
D|-----------------------------------------------9---9----9------------------|
A|---------------------------------------------------------------------------|
E|---------------------------------------------------------------------------|
   shakin' off all the bad thoughts that come with you 
    C               Am               G         Bm
e|--10--------------10--------10----------------------10---------------------|
B|-----8---8--8---8----8---8-----8------8----8-10--12----12--12-10-----------|
G|-------9------9--------9---------9h11---11-----------------------12--------|
D|---------------------------------------------------------------------------|
A|---------------------------------------------------------------------------|
E|---------------------------------------------------------------------------|
    how did the echoes in my head get so out of tune? 

C
  what are your fences up against? 
G
  our castles have turned into sand but 
    Bm           Am
e|--------10--12-----|
B|--12-----------10--|
    don't let me down
            Bm           Am
e|----------------10--12-14b--|
B|--12/10---12----------------|
            don't let me down cause i've lose my way
C
  how many blunders does it take 
G
  for the sake of yourself to finally 
    Bm          Am
e|------10---12-----|
B|--12----------10--|
  admit your mistake 
            Bm             Am
e|----------------10--12---14b--|
B|--12/10---12------------------|
          i guess you just don't seem to roll that way 

Bm           Am                      G
   i see you clinging tightly to the strap 
            Bm             Am                     G
   and we're still holding hands through a catflap
        Bm                        Am                    G
does it not make you question the times you've lost yourself 
              Bm                      Am                 G        
trust me it’s more than many, i'm not trying to be petty but i'm still

    C               Am               G         Bm
e|--10--------------10--------10---------------------------------------------|
B|-----8---8--8---8----8---8-----8------8----8-------------------------------|
G|-------9------9--------9---------9h11---11---7---7----7--------------------|
D|-----------------------------------------------9---9----9------------------|
A|---------------------------------------------------------------------------|
E|---------------------------------------------------------------------------|
              shakin' off all the bad thoughts that come with you 
    C               Am               G         Bm
e|--10--------------10--------10----------------------10---------------------|
B|-----8---8--8---8----8---8-----8------8----8-10--12----12--12-10-----------|
G|-------9------9--------9---------9h11---11-----------------------12--------|
D|---------------------------------------------------------------------------|
A|---------------------------------------------------------------------------|
E|---------------------------------------------------------------------------|
              how did the echoes in my head get so out of tune?
    C               Am               G         Bm
e|--10--------------10--------10---------------------------------------------|
B|-----8---8--8---8----8---8-----8------8----8-------------------------------|
G|-------9------9--------9---------9h11---11---7---7----7--------------------|
D|-----------------------------------------------9---9----9------------------|
A|---------------------------------------------------------------------------|
E|---------------------------------------------------------------------------|
              shakin' off all the bad thoughts that come with you 
    C               Am               G         Bm
e|--10--------------10--------10----------------------10---------------------|
B|-----8---8--8---8----8---8-----8------8----8-10--12----12--12-10-----------|
G|-------9------9--------9---------9h11---11-----------------------12--------|
D|---------------------------------------------------------------------------|
A|---------------------------------------------------------------------------|
E|---------------------------------------------------------------------------|
               how did the echoes in my head get so out of tune?
e|--10--------------10--------10---------------------------------------------|
B|-----8---8--8---8----8---8-----8------8----8-------------------------------|
G|-------9------9--------9---------9h11---11---7---7----7--------------------|
D|-----------------------------------------------9---9----9------------------|
A|---------------------------------------------------------------------------|
E|---------------------------------------------------------------------------|
             i see you clinging tightly to the strap 
      e|--10--------------10--------10----------------------10---------------------|
      B|-----8---8--8---8----8---8-----8------8----8-10--12----12--12-10-----------|
      G|-------9------9--------9---------9h11---11-----------------------12--------|
      D|---------------------------------------------------------------------------|
      A|---------------------------------------------------------------------------|
      E|---------------------------------------------------------------------------|
and we're still holding hands through a catflap

            
            
Suggest correction
Creating personal tab
Creating personal tab
You can edit any tab online and save it as your Personal.

You can edit, replace or remove any tab part or add personal notes – all changes will be seen only by you.

Personal tabs can be accessed anytime from any device, even offline.
Learn more »
Give kudos to tab author, rate the tab!
1 2 3 4 5
comments
print report bad tab
guest
You may want to rate the tab now too:
select rating
Wanna post a correction for this tab? Suggest correction