Oops, an error
Loading. Please wait.

Bomb Hands bass

version 1
version 1

Whole song

Interactive

381 views 1 this week
3 commentsread comments
1 2 3 4 5
2 more votes to show rating
add to favorites
×
Save as Personal and add changes to this tab that will be seen only by you. Learn more ›
×
You can save this tab as Personal to edit and correct it or add notes. All changes will be seen only by you. Learn more »
launch autoscroll
font size
0
reset
guitar tuner
edit
Autoscroll
slow
fast
+/-
esc
set tempo
stop
Social Code
Bomb Hands
Bass Tab
Tuning: Down half a step (Eb Ab Gb Db)
Tabbed by: insanedrummerkid@hotmail.com

Guitar intro first time, then at end of second time:

|-----------------------|
|-----------------------|
|---------7-6-4---7-6-4-|
|4/1p0---4-------4------|

Verse 1

|------------------------------------|
|------------------------------------| x2
|---------77-777-7-66-666-6-44-444-4-|
|44-444-4----------------------------|

"everything he touches..."
|-------------------------------------------------------------------|
|-------------------------------------------------------------------|
|--------7-7-7-7-6-6-6-6-4-4-4-4----------77777777-6666666666666666-|
|4-4-4-4-------------------------44444444---------------------------|

Pre-chorus 1

"im tired of your tragedies..."
|------------|
|------------| x2
|-----2--22--|
|0--00-----2-|

Chorus 1

|---------------------------------------|
|---------------------------------------|
|----2222--------------2222-------------|
|0000----2222-4444-0000----22222222/1p0-|

then guitar plays 8 beats of pre-verse then bass reenters with:

|----------------|
|----------------|
|--7-6-4---7-6-4-|
|4-------4-------|

Verse 2
|------------------------------------|
|------------------------------------| x2
|---------77-777-7-66-666-6-44-444-4-|
|44-444-4----------------------------|

|-------------------------------------------------------------------|
|-------------------------------------------------------------------|
|--------7-7-7-7-6-6-6-6-4-4-4-4----------77777777-6666666666666666-|
|4-4-4-4-------------------------44444444---------------------------|

Prechorus 2

|------------|
|------------| x2
|-----2--22--|
|0--00-----2-|

Chorus 2

|---------------------------------------|
|---------------------------------------|
|----2222--------------2222-------------|
|0000----2222-4444-0000----22222222/1p0-|

guitar 'solo'
(i know this isnt correct but i dont hav my bass with me right now so i cant figure it 
so ill just write in the support for the guitar part)

|-------------------------------------------|
|-------------------------------------------|
|2222-4444-2222-66-44-2222-4444-66-44-22-44-|
|-------------------------------------------|

|---------------------------------------|
|---------------------------------------|
|---------------------------------------|
|2222-4444-2222-66-44-22222222-44444444-|

then:
|--------|
|--------| x16 (guitar joins after 8th)
|--7-6-4-|
|4-------|


Chorus 3

|-----------------------------------------------------------------------|
|-----------------------------------------------------------------------|
|----2222--------------2222--------------2222---------------------------|
|0000----2222-4444-0000----2222-4444-0000----2222-4444-00000000-22222222|

outro

|------------------------------|
|------------------------------|
|------------------------------|
|44-444-444-444-444-444-44---0-|

im pretty sure this is mostly right, enjoy :)


/ - slide to
p - pull off

            
            
Suggest correction
Creating personal tab
Creating personal tab
You can edit any tab online and save it as your Personal.

You can edit, replace or remove any tab part or add personal notes – all changes will be seen only by you.

Personal tabs can be accessed anytime from any device, even offline.
Learn more »
Give kudos to tab author, rate the tab!
1 2 3 4 5
comments
print report bad tab
3 comments total.
0 reply
brazen 115 Oct 04, 2007 02:38 PM

The bridge is hard to play i think you might have it wrong, but regardless good tab

0 reply
hennebry 10 Jan 03, 2008 10:53 AM

nah the bridge is right

0 reply
thunderhawk 535 Oct 10, 2008 03:30 PM

pretty good and the bridge isnt that bad but it isnt right

guest
Wanna post a correction for this tab? Suggest correction