Oops, an error
Loading. Please wait.

I Was Wrong tab

version 3
version 3

Whole song

Interactive

20,728 views 27 this week
1 commentread comment
1 2 3 4 5
x 5
add to favorites
×
Save as Personal and add changes to this tab that will be seen only by you. Learn more ›
×
You can save this tab as Personal to edit and correct it or add notes. All changes will be seen only by you. Learn more »
launch autoscroll
font size
0
reset
how to read this tab
guitar tuner
backing track
0:00
0:00
edit
Autoscroll
slow
fast
+/-
esc
set tempo
stop
Author
-------------------------------------------------------------------------------
                      I WAS WRONG - Social Distortion
-------------------------------------------------------------------------------
Tabbed by: Tomaskovic93
Email: Mattnbrstl@aol.com

Tuning:E,A,D,G,B,e

the intro starts with a solo, there are two guitars.

listen to the song you'll get the timing

Gtr.1

e|---------------------------------------------------------------------------|
B|---------------------------------------------------------------------------|
G|---------------------------------------------------------------------------|
D|--13--13--1313--15-13-15-15-1515--15^15--13-13-1313---------1313-----13----|
A|--------------------------------------------------------1315--------15-----|
E|---------------------------------------------------------------------------|

e|---------------------------------------------------------------------------|
B|---------------------------------------------------------------------------|
G|---------------------------------------------------------------------------|
D|--13--1515--13--13--1313--15--13-15-15-1515--15^15--13-13-1313---------13--|
A|-----------------------------------------------------------------1315------|
E|---------------------------------------------------------------------------|

e|---------------------------------------------------------------------------|
B|---------------------------------------------------------------------------|
G|---------------------------------------------------------------------------|
D|--13--13-------13--13--1515--13--------------------------------------------|
A|----------15---------------------------------------------------------------|
E|---------------------------------------------------------------------------|

Gtr.2 (intro with Gtr.1)

e|---------------------------------------------------------------------------|
B|---------------------------------------------------------------------------|
G|---------------------------------------------------------------------------|
D|---8--8--888---------------------------------------------------------------|
A|---6--6--666--8--8--888--3--3--333--6--6--666------------------------------|
E|--------------6--6--666--1--1--111--4--4--444------------------------------|

VERSE 1


Gtr.1 AND Gtr.2

e|---------------------------------------------------------------------------|
B|---------------------------------------------------------------------------|
G|---------------------------------------------------------------------------|
D|--8--8--8--8--8--8--8------------------------------------------------------|
A|--6--6--6--6--6--6--6--8--8--8--8--8--8--8--3--3--3--3--3--3--3------------|
E|-----------------------6--6--6--6--6--6--6--1--1--1--1--1--1--1------------|

e|---------------------------------------------------------------------------|
B|---------------------------------------------------------------------------|
G|---------------------------------------------------------------------------|
D|---------------------------------------------------------------------------|
A|--6--6--6--6--6--6--6------------------------------------------------------|
E|--4--4--4--4--4--4--4------------------------------------------------------|

Pre Chorus ( Gtr.1 and Gtr. 2)

e|---------------------------------------------------------------------------|
B|---------------------------------------------------------------------------|
G|---------------------------------------------------------------------------|
D|--8---8---88---------------------------------------------------------------|
A|--6---6---66--8---8---88---3---3---33---6---6---66-------------------------|
E|--------------6---6---66---1---1---11---4---4---44-------------------------|

Chorus 1

(Gtr.1 and Gtr.2)

e|---------------------------------------------------------------------------|
B|---------------------------------------------------------------------------|
G|---------------------------------------------------------------------------|
D|--8--8--888----------------------------------------------------------------|
A|--6--6--666--8--8--888--3--3--333--6--6--666-------------------------------|
E|-------------6--6--666--1--1--111--4--4--444-------------------------------|


after the Chorus just go back to the Verse and play all of it again until the pre-solo.


pre-Solo

Gtr.1

(Gtr.2 JUST PLAYS VERSE WITH REPEAT 1x)

e|---------------------------------------------------------------------------|
B|---------------------------------------------------------------------------|
G|---------------------------------------------------------------------------|
D|--8-8-8-8-8-8-8-8-10-10-10-10-10-10-10-10-6-6-6-6-6-6-6-6-8-8-8-8-8-8-8-8--|
A|---------------------------------------------------------------------------|
E|---------------------------------------------------------------------------|

e|---------------------------------------------------------------------------|
B|---------------------------------------------------------------------------|
G|---------------------------------------------------------------------------|
D|--8-8-8-8-8-8-8-8-10-10-10-10-10-10-10-10-6-6-6-6-6-6-6-6-8-8-8-8-8-8-8-8--|
A|---------------------------------------------------------------------------|
E|---------------------------------------------------------------------------|


e|---------------------------------------------------------------------------|
B|---------------------------------------------------------------------------|
G|---------------------------------------------------------------------------|
D|--8-8-8-8-8-8-8-8-10-10-10-10-10-10-10-10-6-6-6-6-6-6-6-6-8-8-8-8-8-8-8-8--|
A|---------------------------------------------------------------------------|
E|---------------------------------------------------------------------------|

e|---------------------------------------------------------------------------|
B|---------------------------------------------------------------------------|
G|---------------------------------------------------------------------------|
D|--8-8-8-8-8-8-8-8-10-10-10-10-10-10-10-10-6-6-6-6-6-6-6-6-8-8-8-8-8-8-8-8--|
A|---------------------------------------------------------------------------|
E|---------------------------------------------------------------------------|

and then you go to the solo which i can't really tab, sorry.

gtr 1 does solo, gtr 2 go back to chorus and repeat until solo is done then do chorus 
until end


END OF SONG
e-----------------------------------------|
B-----------------------------------------|
G-----------------------------------------|
D----------------8------------------------|
A--3------6------6------------------------|
E--1------4-------------------------------|


| /  slide up
| \  slide down
| h  hammer-on
| p  pull-off
| ~  vibrato
| +  harmonic
| x  Mute note
============================================================================

            
            
Suggest correction
Creating personal tab
Creating personal tab
You can edit any tab online and save it as your Personal.

You can edit, replace or remove any tab part or add personal notes – all changes will be seen only by you.

Personal tabs can be accessed anytime from any device, even offline.
Learn more »
comments
print report bad tab
1 comment total.
0 reply
rafanardi 10 Jan 07, 2013 03:06 AM

Great tab! I don`t get tired of playing it

guest
You may want to rate the tab now too:
select rating
Wanna post a correction for this tab? Suggest correction