Oops, an error
Loading. Please wait.

Mommys Little Monster album tab

version 1
version 1

Album

Whole song

Interactive

6,889 views 6 this week
1 commentread comment
1 2 3 4 5
x 3
add to favorites
×
Save as Personal and add changes to this tab that will be seen only by you. Learn more ›
×
You can save this tab as Personal to edit and correct it or add notes. All changes will be seen only by you. Learn more »
launch autoscroll
font size
0
reset
how to read this tab
guitar tuner
backing track
0:00
0:00
edit
Autoscroll
slow
fast
+/-
esc
set tempo
stop
Author
Difficulty
Band: Social Distortion
Album: Mommy's Little Monster
Released: 1983
Track Listing:
     1. The Creeps
      2. Another State of Mind
       3. It Wasn't a pretty picture
        4. Telling Them
         5. Hour of Darkness
          6. Mommy's Little Monster
           7. Anti-Fashion
            8. All The Answers
             9. Moral Threat
Tabbed by: socialdrules (john.cavanagh97@gmail.com)

If you don't understand something, don't lower the rating of the tab, just email
me and I'll be happy to explain and answer any questions.

Questions? Comments? Concerns? Email me at john.cavanagh97@gmail.com

Rate and Comment!

-----------------------------------------------------------------------------------------
                                                                    The Creeps
-----------------------------------------------------------------------------------------

Intro

e|-------------------------------|--------------------------------|----------|
B|-------------------------------|--------------------------------|----------|
G|--3-3--3-3-3-6---3-3--3-3-3-6--|--3-3--3-3-3-6---3-3--3-3-3-6---|----------|
D|--3-3--3-3-3-6---3-3--3-3-3-6--|--3-3--3-3-3-6---3-3--3-3-3-6---|----------|
A|--1-1--1-1-1-4---1-1--1-1-1-4--|--1-1--1-1-1-4---1-1--1-1-1-4---|----------|
E|-------------------------------|--------------------------------|----------|

e|------------------------------------------------------------------|
B|------------------------------------------------------------------|
G|--3-3--3-3-3-3-3-3--6-6--6-6-6-6-6-6-10-10-10-10-8-6-3-3-3-3-3-3--|
D|--3-3--3-3-3-3-3-3--6-6--6-6-6-6-6-6------------------------------|
A|--1-1--1-1-1-1-1-1--4-4--4-4-4-4-4-4--8-8 -8-8-6-4-1-1-1-1-1-1----|
E|------------------------------------------------------------------|

e|------------------------------------------------------------------|
B|------------------------------------------------------------------|
G|--3-3--3-3-3-3-3-3--6-6--6-6-6-6-6-6-10-10-10-10-8-6-3-3-3-3-3-3--|
D|--3-3--3-3-3-3-3-3--6-6--6-6-6-6-6-6------------------------------|
A|--1-1--1-1-1-1-1-1--4-4--4-4-4-4-4-4--8-8 -8-8-6-4-1-1-1-1-1-1----|
E|------------------------------------------------------------------|

Verse

e|----------------|
B|----------------|
G|----------6-8-6-|
D|--8-8--8--6-8-6-|  x4
A|--8-8--8--4-6-4-|
E|--6-6--6--------|

I'll be vigilant I'll be silent
Yes, no one will know
Something for nothing
A toast on your grave

2nd Verse

Run and hide
When I'm on the streets
Your fears and your tears
I'll taunt you in your sleep

Chorus

e|--4--8-8-9-8-|
B|--4--9-9-9-9-|
G|--5----------|
D|--6----------|
A|--6----------|
E|--4----------|

e|-------------|
B|-------------|
G|--3-3-3-6-8--|
D|--3-3-3-6-8--|
A|--1-1-1-4-6--|
E|-------------|


I just wanna give you
The creeps
The creeps
The creeps
The creeps!

Repeat from intro

Solo

e|-------------------------------------|-6-6-6--6-8-9-9-9-8-------6------|
B|--6---6--6--6--6---6--6--6-----------|--------------------9-9-9--------|
G|--8b--8b-8b-8b-8b--8b-8b-8b-8brb-6---|---------------------------------|
D|-----------------------------------8-|---------------------------------|
A|-------------------------------------|---------------------------------|
E|-------------------------------------|---------------------------------|

e|-----9p6-----9p6-----9p6-----9p6----|----6-6---6-6---6-6---6-|
B|--9------9p6-----9p6-----9p6----9p6-|-9------9-----9-----9---|
G|------------------------------------|------------------------|
D|------------------------------------|------------------------|
A|------------------------------------|------------------------|
E|------------------------------------|------------------------|

e|--8-----------|
B|--9-----------|
G|----7b-7b-7b--|
D|--------------|
A|--------------|
E|--------------|

Chorus


--------------------------------------------------------------------------------------
                                                                Another State Of Mind
--------------------------------------------------------------------------------------

Verse
e------------------------------|
B------------------------------|
G------------------------------|
D--5-5-5-5-4-2-----------------| x4
A--3-3-3-3-2-0-5-5-5-5-5-5-5-5-|
E--------------3-3-3-3-3-3-3-3-|

e--------------------------------------|
B--------------------------------------|
G--------------------------------------|
D--4-5-7-7-7-7-7-7-7-7-7-7-7-7-7-7-7-7-|
A--2-3-5-5-5-5-5-5-5-5-5-5-5-5-5-5-5-5-|
E--------------------------------------|

Well I'm in another state
Another state of mind
I wish that I could be there
Right next to her
This road leads to this
And this road leads to that
Her voice sends shivers down my spine


Chorus
e------------------------------------------------------------------------|
B------------------------------------------------------------------------|
G------------------------------------------------------------------------|
D--------------------------------------5-5-5-5-5-5-5-5-5-5-5-5-5-5-5-5-5-|
A--7-7-7-7-7-7-7-7-7-7-7-7-7-7-7-7-7-7-3-3-3-3-3-3-3-3-3-3-3-3-3-3-3-3-3-|
E--5-5-5-5-5-5-5-5-5-5-5-5-5-5-5-5-5-5-----------------------------------|

e-------------------------------------3-3-3--3-5-3-1-1-1-1-3-----------------|
B-------------------------------------3-3-3--3-5-3-1-1-1-1-3-----------------|
G-------------------------------------4-4-4--4-6-4-2-2-2-2-4-----------------|
D-------------------------------------5-5-5--5-7-5-3-3-3-3-5-7-7-7-7-7-7-7-7-|
A-7-7-7-7-7-7-7-7-7-7-7-7-7-7-7-7-7-7-5-5-5--5-7-5-3-3-3-3-5-7-7-7-7-7-7-7-7-|
E-5-5-5-5-5-5-5-5-5-5-5-5-5-5-5-5-5-5-3-3-3--3-5-3-1-1-1-1-3-5-5-5-5-5-5-5-5-|

e------------------|
B------------------|
G------------------|
D------------------|
A--7-7-7-7-7-7-7-7-|
E--5-5-5-5-5-5-5-5-|

These scars in my flesh
I'm bruised and I'm bloodied
Only she knows the pain that I've been heading through
Talk to her a thousand miles away
There's tears in her eyes
If I make it back I'm gonna show her
She's the only one for me

2nd chorus

Hitch a ride on the wild side
It's real hell on wheels
There's gonna be a fight tonight
Oh, I know
Another city we cannot find
Another city that's left behind
As you picture her the cities fade away

Solo:                                                       x4--------------\-|
e--------------------------------------|| -------------------------- ---------|
B---8--8-8-8--8--8-8-8--8--8-8-8--8--8-|| -------------------------- ---------|
G--7--7-7-7--7--7-7-7--7--7-7-7--7--7--||:--4-4-4-3-----------------:---------|
D--------------------------------------||:----------4-4-4-4-4-4-4-4-:---------|
A--------------------------------------|| -------------------------- ---------|
E--------------------------------------|| -------------------------- ---------|

e---------------------|
B---------------------|
G--3-4-6--6--6--6-6-6-|
D---------------------|
A---------------------|
E---------------------|

Now repeat the chorus, except with bar chords for the entire thing

----------------------------------------------------------------------------------------
                                                                 It Wasn't A Pretty Picture
----------------------------------------------------------------------------------------
*Half step down*

Intro
   /----------X2------\---------------------------------------------------------|
 /-----X3------\             ------\--------------------------------------------|
eb------------ ||------------||-------------------------------------------------|
Bb---------8-- ||--8-8-8-10--||--8-7--7-8p7-7--7-8-8-10-8-7---7-8p7-------------|
Gb-9-9-7-9----:||----------- :||-------------------------------------9-7-9-9----|
Db------------:||----------- :||------------------------------------------------|
Ab------------ ||------------||-------------------------------------------------|
Eb------------ ||------------||-------------------------------------------------|

eb------------------------------|
Bb------------------------------|
Gb--7-9-9--7-9-9-9-9-9-9-9-9----|
Db------------------------------|
Ab------------------------------|
Eb------------------------------|

Verse
eb--------------------------------------------------------------------|
Bb--------------------------------------------------------------------|
Gb--------------------------------------------------------------------|
Db--2-2-2-2-2-2-2-2-2-2-2-2-2-2-2-2-2-2-2-2-2-2-2-2-2-2-2-2-2-2-2-2-2-|
Ab--2-2-2-2-2-2-2-2-2-2-2-2-2-2-2-2-2-2-2-2-2-2-2-2-2-2-2-2-2-2-2-2-2-|
Eb--0-0-0-0-0-0-0-0-0-0-0-0-0-0-0-0-0-0-0-0-0-0-0-0-0-0-0-0-0-0-0-0-0-|

eb-----------|
Bb-----------|
Gb--5-5-5-7--|
Db--5-5-5-7--| x 4
Ab--3-3-3-5--|
Eb-----------|

1st verse

Last night, a whore
Found murdered in the streets
The skid row bums
Are just wakin' up
A politician
Caught holding drugs
A friend who's left us
In this suicidal way

2nd verse

A crash.
A bash-up
On highway 109
His wife has left him
For another man
A kid,
A child
Experiments with drugs
A friend who's left us in this suicidal way


Chorus
eb--5-5-5-5-5-5-5-5-5-5-5-5-5-5-5-5-5-|-3-3-3-3-3-3-3-3-3-3-3-3-3-3-3-3--|
Bb--5-5-5-5-5-5-5-5-5-5-5-5-5-5-5-5-5-|-3-3-3-3-3-3-3-3-3-3-3-3-3-3-3-3--|
Gb--6-6-6-6-6-6-6-6-6-6-6-6-6-6-6-6-6-|-4-4-4-4-4-4-4-4-4-4-4-4-4-4-4-4--|
Db--7-7-7-7-7-7-7-7-7-7-7-7-7-7-7-7-7-|-5-5-5-5-5-5-5-5-5-5-5-5-5-5-5-5--|
Ab--7-7-7-7-7-7-7-7-7-7-7-7-7-7-7-7-7-|-5-5-5-5-5-5-5-5-5-5-5-5-5-5-5-5--|
Eb--5-5-5-5-5-5-5-5-5-5-5-5-5-5-5-5-5-|-3-3-3-3-3-3-3-3-3-3-3-3-3-3-3-3--|

eb--0-0-0-0-0--0-0------------|
Bb--0-0-0-0-0--0-0------------|
Gb--0-0-0-0-0--0-0--5-5-5-5-7-|
Db--2-2-2-2-2--2-2--5-5-5-5-7-|
Ab--2-2-2-2-2--2-2--3-3-3-3-5-|
Eb--0-0-0-0-0--0-0------------|

eb--0-0-0-0-0--0-0------------|
Bb--0-0-0-0-0--0-0------------|
Gb--0-0-0-0-0--0-0--5-5-5-5-7-|
Db--2-2-2-2-2--2-2--5-5-5-5-7-|
Ab--2-2-2-2-2--2-2--3-3-3-3-5-|
Eb--0-0-0-0-0--0-0------------|

Chorus:
No one said
Life would be easy
Doesn't mean
That much to me,
To me
To me,
To me

Solo
eb--------------------------------------------------------------------------|
Bb--12---12---12--12---12--12--12--12---------15p12-15p12-15p12-15p12-15p12-|
Gb--14b--14b--14b-14b--14b-14b-14b-14b--------------------------------------|
Db--------------------------------------------------------------------------|
Ab--------------------------------------------------------------------------|
Eb--------------------------------------------------------------------------|

eb---------------0-0---0-3--0-0---0-3--0-0---0-3--5-5-5-5-7--|
Bb--15-17--------5-5-3-5----5-5-3-5----5-5-3-5---------------|
Gb-----------------------------------------------------------|
Db-----------------------------------------------------------|
Ab-----------------------------------------------------------|
Eb-----------------------------------------------------------|

Chorus

Outro
eb-------||
Bb--12---||
Gb--14b--||
Db-------||
Ab-------||
Eb-------||


-----------------------------------------------------------------------------------------------
                                                                        Telling Them
-----------------------------------------------------------------------------------------------

*half step down*

Intro
e--0--7-0-7-0-7-0-7-0--7-7--7-7--7-7-7--7-7--7-7--7-7-7-7-7--|
B------------------------------------------------------------|
G------------------------------------------------------------|
D------------------------------------------------------------|
A------------------------------------------------------------|
E------------------------------------------------------------|

Verse
e-----------------------------------------------------------------------|
B-----------------------------------------------------------------------|
G-----------------------------------------------------------------------|
D--9-9-9-9-9-9-9-9-9-------------------7-7-7-7-7-7-7-7------------------| x4
A--7-7-7-7-7-7-7-7-7-5-5-5-5-5-5-5-5-5-5-5-5-5-5-5-5-5-7-7-7-7-7-7-7-7--|
E--------------------3-3-3-3-3-3-3-3-3-----------------5-5-5-5-5-5-5-5--|

Well I love the sound when I smash the glass
If I get caught they're gonna kick my ass
Mommy is worried 'bout the way I drink
My daddy can't figure out the way I think!
Wake me up, tell me "get to work"
I slam the door say shut up you jerk!
I can't wait for the show tonight
When I'm with my friends everything's alright


2nd Verse

Well I love the sound when I smash the glass
If I get caught they're gonna kick my ass
My girl is very close to me
That's just where I want her to be!
Say it costs six dollars for the shack
I'll go around sneak it in the back
I hope the police don't show up here
We'll have to hide out of fear

Chorus
e---------------------------------------------------------|
B---------------------------------------------------------|
G---------------------------------------------------------|
D---------------------------------------------------------| x4
A--9-9-9-9-9-9-7-7-7-7-7-7-7-5-5-5-5-5-5-4-4-4-4-4-4-4-4--|
E--7-7-7-7-7-7-5-5-5-5-5-5-5-3-3-3-3-3-3-2-2-2-2-2-2-2-2--|

Aaaaaaaaaawwwwwwwww, Aaaaaaaaaawwwwwwwww,
Aaaaaaaaaawwwwwwwww, Aaaaaaaaaawwwwwwwww
Aaaaaaaaaawwwwwwwww, Aaaaaaaaaawwwwwwwww,
Aaaaaaaaaawwwwwwwww, Aaaaaaaaaawwwwwwwww

They're telling me, but I'm telling them
I'll do it my way, and I'll always win
When the sun comes down,
I'm ready to play
It doesn't matter what anybody says


Solo
e||--7-0-0-7-0--0-|| ||--7-7--7-7--7-7-7-7-7-7-7-|| ||-----7-7--7-7--7-7---------|
B||---------------|| ||--------------------------|| ||-----7-7--7-7--7-7---------|
G||:--------------:|| ||:-------------------------:|| ||:--10b---------------:---|
D||:--------------:|| ||:-------------------------:|| ||:--------------------:---|
A||---------------|| ||--------------------------|| ||---------------------------|
E||---------------|| ||--------------------------|| ||---------------------------|

e||--12p9--||--10-12-12-10h12--||--15p12--------||--15-15b-15-15-15rb-15-12------|
B||--------||------------------||--------15p12--||-------------------------------|
G||:-------:||------------------||:--------------:||-----------------------------|
D||:-------:||------------------||:--------------:||-----------------------------|
A||--------||------------------||---------------||-------------------------------|
E||--------||------------------||---------------||-------------------------------|

e--------------------------------|
B--12----12---12-----------------|
G-----14---14---14--12-14-12-----|
D----------------------------14--|
A--------------------------------|
E--------------------------------|

Chorus


-------------------------------------------------------------------------------------------
                                                                     Hour of Darkness
-------------------------------------------------------------------------------------------

*Half step down*

Intro
                     x2 Rhythm                                       Lead
e------------------------------|--------------------------------------------|
B------------------------------|--------------------------------------------|
G------------------------------|--9--9---9h11p9-8-6-6-6---6-6-8-9--11p9-8-6-|
D--9---9------9--6--6-------6--|--------------------------------------------|
A--7-9-7-9-11-7--4-6--6-8-8-4--|--------------------------------------------|
E----7---7--9------4--4-6------|--------------------------------------------|

The verse is the same as the rhythm to the intro, except it is repeated x4 instead of 2

An hour of anger, an hour of love
This hour of confusion as I look above
Death and life as I've never seen before
One more trip like that and I'm in the mental ward

2nd Verse
An hour of darkness, an hour that's passed
This life I feel just won't be surpassed
Death and life as I've never seen before
One more trip like that will put me in the morgue

Chorus
e---------------------------------------------------------------------|
B---------------------------------------------------------------------|
G-----------------------------------7-7-7-7-7-7-7-7-7-7-7-7-7-7-7-7-7-|
D--9-9-9-9-9-9-9-9-9-9-9-9-9-9-9-9--7-7-7-7-7-7-7-7-7-7-7-7-7-7-7-7-7-|
A--9-9-9-9-9-9-9-9-9-9-9-9-9-9-9-9--5-5-5-5-5-5-5-5-5-5-5-5-5-5-5-5-5-|
E--7-7-7-7-7-7-7-7-7-7-7-7-7-7-7-7------------------------------------|

e---------------------------------------------------------------------|
B---------------------------------------------------------------------|
G-----------------------------------9-7-9-7-9-7-9-7-9-7-9-7-9-7-9-7-9-|
D--7-7-7-7-7-7-7-7-7-7-7-7-7-7-7-7--9-7-9-7-9-7-9-7-9-7-9-7-9-7-9-7-9-|
A--7-7-7-7-7-7-7-7-7-7-7-7-7-7-7-7--7-5-7-5-7-5-7-5-7-5-7-5-7-5-7-5-7-|
E--5-5-5-5-5-5-5-5-5-5-5-5-5-5-5-5------------------------------------|

Chorus:
These sights and sounds are all around me
They grasp and they don't let go
The sirens, the cries
The laughter and the sighs
I hear the hour, my hour of darkness

Verse

Solo:


e----2h4p2-----|
B--2-----------|
G--------------|
D--------------| x32
A--------------|
E--------------|


e--2-0-4-0--|
B-----------|
G-----------|
D-----------| x32
A-----------|
E-----------|


e--4p2p0--|
B---------|
G---------|
D---------| x30
A---------|
E---------|

e--2-2-0--0-0-0-0--||
B------------------||
G------------------||
D------------------||
A------------------||
E------------------||


-----------------------------------------------------------------------------------------------
                                                             Mommy's Little Monster
-----------------------------------------------------------------------------------------------
*Half step down*

Intro
e-----10-||-----------------||--------------------|
B-----10-||--13-12-10----10-||-----10---10--------|
G--12b---||:----------12b---:||--12b--12b-----:---|
D--------||:----------------:||---------------:---|
A--------||-----------------||--------------------|
E--------||-----------------||--------------------|

Verse
e------------------------------------------------------------------|
B------------------------------------------------------------------|
G--7-7-7-7-7-7-7-7-----------------5-5-5-5-5-5-5-5-7-7-7-7-7-7-7-7-|
D--7-7-7-7-7-7-7-7-5-5-5-5-5-5-5-5-5-5-5-5-5-5-5-5-7-7-7-7-7-7-7-7-| x4
A--5-5-5-5-5-5-5-5-5-5-5-5-5-5-5-5-3-3-3-3-3-3-3-3-5-5-5-5-5-5-5-5-|
E------------------3-3-3-3-3-3-3-3---------------------------------|

Mommy's little monster dropped out of school
Mommy's little monster broke all the rules
He loves to go out drinkin' with the boys
He loves to go out and make some noise
He doesn't wanna be a doctor
Or a lawyer, get fat and rich
He's twenty years old and he quit his job
Unemployment pays his rent

His brothers and sisters have
Tasted sweet success
His parents condemn him saying,
His life's a mess

2nd Verse

Mommy's little monster shoots methadrine
Mommy's little monster had sex at fifteen
She left home for the streets
She couldn't deal with all that heat
She has fun with the boys in the band
In her eyes, it'll never end
Her dad asked what happened to her face
It coulda happened at any place

Her eyes are a deeper blue
She likes her hair that color, too
She can't even wear a dress
But that doesn't mean she'll ever confess

Chorus
e--------------|
B--------------|
G--7-----5--7--|
D--7--5--5--7--| x4
A--5--5--3--5--|
E-----3--------|

He's mommy's little monster
He's mommy's little monster
Mommy's little monster
Don't wake him in a fit

She's mommy's little monster
She's mommy's little monster
Mommy's little monster
Don't take her life away

1st solo
e-------------------------------------||-----------||---------------------------|
B-------------------------------------||-----------||---------------------10----|
G--12b--12-12b--12-12b-12-10-12-10----||:--12p10---:||--12-12-12b-12-10-12------|
D----------------------------------12-||:-------12-:||--------------------------|
A-------------------------------------||-----------||---------------------------|
E-------------------------------------||-----------||---------------------------|

e---------------------------13-13-13b-13-13rb-13-10-------------------------|
B---------------------------------------------------------------------------|
G--12-12-12-12-12-12-12-12--------------------------12b-12-12b-12-12b-12-10-|
D---------------------------------------------------------------------------|
A---------------------------------------------------------------------------|
E---------------------------------------------------------------------------|

e----------||
B----------||
G--12-12b--||
D----------||
A----------||
E----------||

2nd solo
e||------------------------------------------------|
B||------------------------------------------------|
G||:-------------------------------------------:---|
D||:--12-12-12-10-12-12-12-10-12-12-12-12b-12--:---|
A||------------------------------------------------|
E||------------------------------------------------|

-------------------------------------------------------------------------------------------
                                                                         Anti-Fashion
-------------------------------------------------------------------------------------------

*Half step down*

Intro:
e-------|
B-------|
G--7----|
D--7----|
A--5----|
E-------|

e-----------------------------------|
B--7-7-7-7-5-5-5-5-9-9-9-9-7-7-7-7--|
G--7-7-7-7-5-5-5-5-9-9-9-9-7-7-7-7--|
D--7-7-7-7-5-5-5-5-9-9-9-9-7-7-7-7--| x 4
A--5-5-5-5-3-3-3-3-7-7-7-7-5-5-5-5--|
E-----------------------------------|

You are so plastic you could be a barbie doll
You walk and you talk just like them all
And oh, how I love those pretty little curls
With shoes and skirts, who's the better girl

2nd Verse

And where did you get those hundred dollar pants?
You know how I'd love to rip them up to shreds
A shiny new sports car takes you to the mall
Shop with the elite, compare them all

Chorus:
e-----------------------------------------------------------|
B--7-7-7-7-7-7-7-7-9-9-9-9-9-9-9-9-7-7-7-7-7-7-5-7-5-7-5-7--|
G--7-7-7-7-7-7-7-7-9-9-9-9-9-9-9-9-7-7-7-7-7-7-5-7-5-7-5-7--|
D--7-7-7-7-7-7-7-7-9-9-9-9-9-9-9-9-7-7-7-7-7-7-5-7-5-7-5-7--| x 2
A--5-5-5-5-5-5-5-5-7-7-7-7-7-7-7-7-5-5-5-5-3-5-3-5-3-5-3-5--|
E-----------------------------------------------------------|

Anti-fashion
Take them off
Anti fashion

Outro
e-----------------------------|
B--9-9--9-7-7--7-5-5-5-5-5-5--|
G--9-9--9-7-7--7-5-5-5-5-5-5--|
D--9-9--9-7-7--7-5-5-5-5-5-5--| x 4
A--7-7--7-5-5--5-3-3-3-3-3-3--|
E-----------------------------|


------------------------------------------------------------------------------------------------
                                                                         All the Answers
------------------------------------------------------------------------------------------------

Intro/Chorus

Once for intro, twice for chorus

e--------------------|
B--------------------|
G--8-8--8-6-6-6-6-8--|
D--8-8--8-4-4-4-4-6--| x 3
A--6-6--6------------|
E--------------------|

e------------------|
B------------------|
G--6-6-6--6-4-6-6--|
D--6-6-6--6-4-6-6--|
A--4-4-4--4-2-4-4--|
E------------------|

They're loud
They're obnoxious
They're proud
They're unconcious
But don't forget that they're your future

Verse
2 times
e-----------------------------------|
B-----------------------------------|
G--8-8-8-8-8-8-8-8-6-6-6-6-6-6-6-6--|
D--8-8-8-8-8-8-8-8-6-6-6-6-6-6-6-6--| x 2
A--6-6-6-6-6-6-6-6-4-4-4-4-4-4-4-4--|
E-----------------------------------|

e----------------------|
B----------------------|
G--4-4-4--4-4-4-2-4-4--|
D--4-4-4--4-4-4-2-4-4--|
A--2-2-2--2-2-2-0-2-2--|
E----------------------|

1, 2, 3, 4, 5, 6, 7
You won't see these kids in heaven
Colored hair and funny clothes

They are the menaces of today
And they won't listen to what you say
Don't forget that they're your future

2nd verse

These kids are accused for all the violence
You can't even keep them silent
You thought you had all the answers

You won't be able to make them pay
But they're not gonna fade away
Don't forget that they're your future


-------------------------------------------------------------------------------------------
                                                                        Moral Threat
-------------------------------------------------------------------------------------------

*DROP D*

Intro

e-------------------------------------0--||---------------------------|
B-------3---------------------------0-0--||---3-3--5-6-5-6------------|
G-----2-2--------------------------0--0--||:--2-2--4-5-4-5--:---------|
D---0-----------------------------2---2--||:--0-0-----------:---------|
A--0-----------------------------2----2--||--0-0----------------------|
D-----------pickslide (to third fret)--2-----2--||--0-0---------------|

Verse
e----------------|
B----------------|
G----------------|
D----------------| x 4
A--0-0--2-3-2-3--|
D--0-0--2-3-2-3--|

You beat us up when we're alone
Come back later and then you're gone
Now you're tucked away in your bed
And I've got stitches in my head

2nd verse:
You made a show for all your friends
But they're not gonna stick around 'till the end
Then you're gonna think "was it really worth it?"
But your head is rolling with all this shit

3rd verse:
The justice system is slow it's true
So we're gonna have to take care of you
You're only safety is suicide
Face it buddy, it's the end of the ride

Chorus
e------------------------------------------------------------|
B------------------------------------------------------------|
G------------------------------------------------------------|
D------------------------------------------------------------| x 4
A---9-9-9-9-9-9-9-9-9-9-9-9-9-9-9-9--6-7-7-6-7-7-6-7-7-6-7-7-|
D---9-9-9-9-9-9-9-9-9-9-9-9-9-9-9-9--6-7-7-6-7-7-6-7-7-6-7-7-|

'Cause you didn't like my looks
'Cause I'm not in the fashion books
Admit it, you had some fun
Just remember, you're the only one

Solo
e------------------1-1-1-1-1-1-1-1-----------------1-------||
B--3-3-3-3-3-3-3-3-1-1-1-1-1-1-1-1-1-1-1-1-1-1-1-1-1-1-3---||
G--2-2-2-2-2-2-2-2-----------------0-0-0-0-0-0-0-0---0-2--:||
D---------------------------------------------------------:||
A----------------------------------------------------------||
D----------------------------------------------------------||

e------------------------------------------------------|
B------------------------------------------------------|
G--7-7-7-7-7-7-7-7-10----------------5-5-5-5-5-5---5-7-|
D------------------------------------------------------|
A--5-5-5-5-5-5-5-5-8-8-8-8-8-8-8-8-8-3-3-3-3-3-3-8-3-5-|
D------------------------------------------------------|

e||--12-12----12-12-----||-------------||-------------------12-12-------12-12-----|
B||--12-12----12-12-----||--15p12--12--||-15-15-15b-15-15b--------15-15-----------|
G||:-------14b------14b-:||:-------14---:||---------------------------------------|
D||:--------------------:||:------------:||---------------------------------------|
A||---------------------||-------------||-----------------------------------------|
D||---------------------||-------------||-----------------------------------------|

e--------12-12-------12--||--15p12-------||--15-15-15b-15-15rb-15-12------------|
B--15-15-------15-15-----||-------15p12--||------------------------------15-----|
G------------------------||:-------------:||---------------------------14b------|
D------------------------||:-------------:||------------------------------------|
A------------------------||--------------||-------------------------------------|
D------------------------||--------------||-------------------------------------|

e---------------------------------||--------------||-----------------------------|
B--12-15-15-12--------------------||--------------||-----------------------------|
G--------------14-12-14-12-12-----||:--14p12------:||--14-14brb-12-14-14b--14b---|
D-----------------------------14--||:-------14p12-:||----------------------------|
A---------------------------------||--------------||-----------------------------|
D---------------------------------||--------------||-----------------------------|

e------------------------------|
B------------------------------|
G--14-14b-14-14b-14-12-14-14b--|
D------------------------------|
A------------------------------|
D------------------------------|

e--------0--||
B------0-0--||
G-----0--0--||
D----2---2--||
A---2----2--||
D--2-----2--||

Verse

Chorus

Outro:
e-----||
B--3--||
G--2--||
D--0--||
A--0--||
D-----||

************************************

| /   slide up
| \   slide down
| h   hammer-on
| p   pull-off
| ~   vibrato
| +   harmonic
| x   Mute note
| b   Bend
| pb  Pre-bend
| br  Bend release
| pbr Pre-bend release
| brb Bend release bend
| ||: :|| Repeat
************************************

            
            
Suggest correction
Creating personal tab
Creating personal tab
You can edit any tab online and save it as your Personal.

You can edit, replace or remove any tab part or add personal notes – all changes will be seen only by you.

Personal tabs can be accessed anytime from any device, even offline.
Learn more »
Give kudos to tab author, rate the tab!
1 2 3 4 5
comments
print report bad tab
1 comment total.
0 reply
fluffysnowcats 10 Feb 06, 2014 01:32 PM

wow great tab man its a damn shame you didn't get more recognition for this, but it big thanks from me

guest
You may want to rate the tab now too:
select rating
Wanna post a correction for this tab? Suggest correction