Oops, an error
Loading. Please wait.

Reach For The Sky tab

version 2
version 2

Whole song

Interactive

5,699 views 1 this week
4 commentsread comments
1 2 3 4 5
x 3
add to favorites
×
Save as Personal and add changes to this tab that will be seen only by you. Learn more ›
×
You can save this tab as Personal to edit and correct it or add notes. All changes will be seen only by you. Learn more »
launch autoscroll
font size
0
reset
how to read this tab
guitar tuner
edit
Autoscroll
slow
fast
+/-
esc
set tempo
stop
Author
This is the whole song...just follow the guitar riffs and play it to how it sound in the 
and you shal be pleased!

//=Slide Up
\\=Slide Down
*=Pinch Harmonic

Intro:

e|--6*-------|
B|-----------|
G|-----------|
D|-----------|
A|-----------|
E|-----------|


Guitar 1 & 2/Heavy Distortion

e|----------------------------------|--------------------------------------|
B|----------------------------------|--------------------------------------|
G|--3-3-3-3-3-3-3-3-3-3-3-3-3-3-3-3-|-5-5-5-5-5-5-5-5-5-5-5-5-5-5-5-5------|
D|--3-3-3-3-3-3-3-3-3-3-3-3-3-3-3-3-|-5-5-5-5-5-5-5-5-5-5-5-5-5-5-5-5------|
A|--1-1-1-1-1-1-1-1-1-1-1-1-1-1-1-1-|-1-1-1-1-1-1-1-1-1-1-1-1-1-1-1-1------|
E|----------------------------------|--------------------------------------|

e|----------------------------------|---------------------------------------|
B|----------------------------------|---------------------------------------|
G|--6-6-6-6-6-6-6-6-6-6-6-6-6-6-6-6-|-8-8-8-8-8-8-8-8-8-8-8-8---------------|
D|--6-6-6-6-6-6-6-6-6-6-6-6-6-6-6-6-|-8-8-8-8-8-8-8-8-8-8-8-8-3-------------|
A|--4-4-4-4-4-4-4-4-4-4-4-4-4-4-4-4-|-1-1-1-1-1-1-1-1-1-1-1-1-1-------------|
E|----------------------------------|-------------------------1-------------|

Intro Part 2

   Guitar 1

e|------------------------|-------------------------|-------------------------|--------------------------|
B|--2---1-----------------|--2---1------------------|--2---1---------------1*-|--2---2/4---2---1---------|
G|----------3-------------|----------3--------------|----------3---1---3------|--------------------------|
D|--------------3---------|---------------1---------|-------------------------|--------------------------|
A|------------------------|-------------------------|-------------------------|--------------------------|
E|------------------------|-------------------------|-------------------------|--------------------------|
 |															   |
 |  Guitar 2														   |X2
 |															   |
e|------------------------|-------------------------|-------------------------|--------------------------|
B|------------------------|-------------------------|-------------------------|--------------------------|
G|--3-3-3-3-3-3-3-3-3-3-3-|-------------------------|--6-6-6-6-6-6-6-6-6-6-6--|--------------------------|
D|--3-3-3-3-3-3-3-3-3-3-3-|--4-4-4-4-4-4-4-4-4-4-4--|--6-6-6-6-6-6-6-6-6-6-6--|--6-6-6-6-6-6-6-6-6-6-6---|
A|--1-1-1-1-1-1-1-1-1-1-1-|--4-4-4-4-4-4-4-4-4-4-4--|--4-4-4-4-4-4-4-4-4-4-4--|--6-6-6-6-6-6-6-6-6-6-6---|
E|------------------------|--2-2-2-2-2-2-2-2-2-2-2--|-------------------------|--4-4-4-4-4-4-4-4-4-4-4---|

   Pre-Verse:
   Guitar 1

e|----------------------|---------------------------------------------------|
B|----------------------|---------------------------------------------------|
G|--3-------------------|---------------------------------------------------|
D|----------------------|---------------------------------------------------|
A|----------------------|---------------------------------------------------|
E|----------------------|---------------------------------------------------|
 |										    |
 | Guitar 2  								    |
 |										    |
e|----------------------|---------------------------------------------------|
B|----------------------|---------------------------------------------------|
G|----------------------|---------------------------------------------------|
D|--8-8-8-8-8-8-8-8-8-8-|8-8-8-8-8-8//6--\\8--------------------------------|
A|--8-8-8-8-8-8-8-8-8-8-|8-8-8-8-8-8//6--\\8--------------------------------|
E|--6-6-6-6-6-6-6-6-6-6-|6-6-6-6-6-6//4--\\6--------------------------------|

   Verse
   Guitar 1 & 2

e|----------------------|---------------------|---------------------|---------------------|
B|----------------------|---------------------|---------------------|---------------------|
G|----------------------|---------------------|-6-6-6-6-6-6-6-6-6-6-|---------------------|X2
D|--8-8-8-8-8-8-8-8-8-8-|-4-4-4-4-4-4-4-4-4-4-|-6-6-6-6-6-6-6-6-6-6-|-6-6-6-6-6-6-6-6-6-6-|
A|--8-8-8-8-8-8-8-8-8-8-|-4-4-4-4-4-4-4-4-4-4-|-4-4-4-4-4-4-4-4-4-4-|-6-6-6-6-6-6-6-6-6-6-|
E|--6-6-6-6-6-6-6-6-6-6-|-2-2-2-2-2-2-2-2-2-2-|---------------------|-4-4-4-4-4-4-4-4-4-4-|

   Chorus
   Guitar 1

e|------------------------|------------------------|------------------------|------------------------|
B|------------------------|------------------------|------------------------|------------------------|
G|--3-1--3--1-3--1--3--1--|--3-1--3--1-3--1--3--1--|--3-1--3--1-3--1--3--1--|--3-1--3--1-3--1--3--1--|
D|------------------------|------------------------|------------------------|------------------------|
A|------------------------|------------------------|------------------------|------------------------|
E|------------------------|------------------------|------------------------|------------------------|
 |														     |
 | Guitar 2       												     |X2
 | 														     |
e|------------------------|------------------------|------------------------|------------------------|
B|------------------------|------------------------|------------------------|------------------------|
G|--3-3-3-3-3-3-3-3-3-3-3-|------------------------|--6-6-6-6-6-6-6-6-6-6-6-|------------------------|
D|--3-3-3-3-3-3-3-3-3-3-3-|--4-4-4-4-4-4-4-4-4-4-4-|--6-6-6-6-6-6-6-6-6-6-6-|--6-6-6-6-6-6-6-6-6-6-6-|
A|--1-1-1-1-1-1-1-1-1-1-1-|--4-4-4-4-4-4-4-4-4-4-4-|--4-4-4-4-4-4-4-4-4-4-4-|--6-6-6-6-6-6-6-6-6-6-6-|
E|------------------------|--2-2-2-2-2-2-2-2-2-2-2-|------------------------|--4-4-4-4-4-4-4-4-4-4-4-|

   Post Chorus:
   Guitar 1 & 2

e|------------------------|-------------------------|-------------------------|--------------------------|
B|------------------------|-------------------------|-------------------------|--------------------------|
G|--3-3-3-3-3-3-3-3-3-3-3-|-------------------------|--6-6-6-6-6-6-6-6-6-6-6--|--------------------------|X2
D|--3-3-3-3-3-3-3-3-3-3-3-|--4-4-4-4-4-4-4-4-4-4-4--|--6-6-6-6-6-6-6-6-6-6-6--|--6-6-6-6-6-6-6-6-6-6-6---|
A|--1-1-1-1-1-1-1-1-1-1-1-|--4-4-4-4-4-4-4-4-4-4-4--|--4-4-4-4-4-4-4-4-4-4-4--|--6-6-6-6-6-6-6-6-6-6-6---|
E|------------------------|--2-2-2-2-2-2-2-2-2-2-2--|-------------------------|--4-4-4-4-4-4-4-4-4-4-4---|


   Guitar 1

e|----------------------|---------------------------------------------------|
B|----------------------|---------------------------------------------------|
G|--3-------------------|---------------------------------------------------|
D|----------------------|---------------------------------------------------|
A|----------------------|---------------------------------------------------|
E|----------------------|---------------------------------------------------|
 |										    |
 | Guitar 2  								    |
 |										    |
e|----------------------|---------------------------------------------------|
B|----------------------|---------------------------------------------------|
G|----------------------|---------------------------------------------------|
D|--8-8-8-8-8-8-8-8-8-8-|8-8-8-8-8-8//6--\\8--------------------------------|
A|--8-8-8-8-8-8-8-8-8-8-|8-8-8-8-8-8//6--\\8--------------------------------|
E|--6-6-6-6-6-6-6-6-6-6-|6-6-6-6-6-6//4--\\6--------------------------------|

   Verse
   Guitar 1 & 2

e|----------------------|---------------------|---------------------|---------------------|
B|----------------------|---------------------|---------------------|---------------------|
G|----------------------|---------------------|-6-6-6-6-6-6-6-6-6-6-|---------------------|X2
D|--8-8-8-8-8-8-8-8-8-8-|-4-4-4-4-4-4-4-4-4-4-|-6-6-6-6-6-6-6-6-6-6-|-6-6-6-6-6-6-6-6-6-6-|
A|--8-8-8-8-8-8-8-8-8-8-|-4-4-4-4-4-4-4-4-4-4-|-4-4-4-4-4-4-4-4-4-4-|-6-6-6-6-6-6-6-6-6-6-|
E|--6-6-6-6-6-6-6-6-6-6-|-2-2-2-2-2-2-2-2-2-2-|---------------------|-4-4-4-4-4-4-4-4-4-4-|

   Chorus
   Guitar 1

e|------------------------|------------------------|------------------------|------------------------|
B|------------------------|------------------------|------------------------|------------------------|
G|--3-1--3--1-3--1--3--1--|--3-1--3--1-3--1--3--1--|--3-1--3--1-3--1--3--1--|--3-1--3--1-3--1--3--1--|
D|------------------------|------------------------|------------------------|------------------------|
A|------------------------|------------------------|------------------------|------------------------|
E|------------------------|------------------------|------------------------|------------------------|
 |														     |
 | Guitar 2       												     |X2
 | 														     |
e|------------------------|------------------------|------------------------|------------------------|
B|------------------------|------------------------|------------------------|------------------------|
G|--3-3-3-3-3-3-3-3-3-3-3-|------------------------|--6-6-6-6-6-6-6-6-6-6-6-|------------------------|
D|--3-3-3-3-3-3-3-3-3-3-3-|--4-4-4-4-4-4-4-4-4-4-4-|--6-6-6-6-6-6-6-6-6-6-6-|--6-6-6-6-6-6-6-6-6-6-6-|
A|--1-1-1-1-1-1-1-1-1-1-1-|--4-4-4-4-4-4-4-4-4-4-4-|--4-4-4-4-4-4-4-4-4-4-4-|--6-6-6-6-6-6-6-6-6-6-6-|
E|------------------------|--2-2-2-2-2-2-2-2-2-2-2-|------------------------|--4-4-4-4-4-4-4-4-4-4-4-|

   Post Chorus:
   Guitar 1 & 2

e|------------------------|-------------------------|-------------------------|--------------------------|
B|------------------------|-------------------------|-------------------------|--------------------------|
G|--3-3-3-3-3-3-3-3-3-3-3-|-------------------------|--6-6-6-6-6-6-6-6-6-6-6--|--------------------------|X2
D|--3-3-3-3-3-3-3-3-3-3-3-|--4-4-4-4-4-4-4-4-4-4-4--|--6-6-6-6-6-6-6-6-6-6-6--|--6-6-6-6-6-6-6-6-6-6-6---|
A|--1-1-1-1-1-1-1-1-1-1-1-|--4-4-4-4-4-4-4-4-4-4-4--|--4-4-4-4-4-4-4-4-4-4-4--|--6-6-6-6-6-6-6-6-6-6-6---|
E|------------------------|--2-2-2-2-2-2-2-2-2-2-2--|-------------------------|--4-4-4-4-4-4-4-4-4-4-4---|

   Post Solo
   Guitar 2

e|---------------------------------|----------------------|
B|---------------------------------|----------------------|
G|---------------------------------|----------------------|
D|---------------------------------|----------------8--6--|
A|--x-x-x-x-x-x-x-x-x-x-x-x-x-x-x-x|x-x-x-x-x-x-x-x-8--6--|
E|--x-x-x-x-x-x-x-x-x-x-x-x-x-x-x-x|x-x-x-x-x-x-x-x-6--4--|

   Solo
   Guitar 1

e|------------------------|-------------------------|-------------------------|--------------------------|
B|--2---1-----------------|--2---1------------------|--2---1---------------1--|--2---2/4---2---1---------|
G|----------3-------------|----------3--------------|----------3---1---3------|--------------------------|
D|--------------3---------|---------------1---------|-------------------------|--------------------------|
A|------------------------|-------------------------|-------------------------|--------------------------|
E|------------------------|-------------------------|-------------------------|--------------------------|
 |															   |
 |  Guitar 2														   |
 |															   |
e|------------------------|-------------------------|-------------------------|--------------------------|
B|------------------------|-------------------------|-------------------------|--------------------------|
G|--3-3-3-3-3-3-3-3-3-3-3-|-------------------------|--6-6-6-6-6-6-6-6-6-6-6--|--------------------------|
D|--3-3-3-3-3-3-3-3-3-3-3-|--4-4-4-4-4-4-4-4-4-4-4--|--6-6-6-6-6-6-6-6-6-6-6--|--6-6-6-6-6-6-6-6-6-6-6---|
A|--1-1-1-1-1-1-1-1-1-1-1-|--4-4-4-4-4-4-4-4-4-4-4--|--4-4-4-4-4-4-4-4-4-4-4--|--6-6-6-6-6-6-6-6-6-6-6---|
E|------------------------|--2-2-2-2-2-2-2-2-2-2-2--|-------------------------|--4-4-4-4-4-4-4-4-4-4-4---|

e|------------------------|-------------------------|-------------------------|--------------------------|
B|--2---3-----------------|--2---1------------------|--2---1---------------1--|--2---2/4---2---1---------|
G|----------3*-------------|----------3--------------|----------3---1---3------|-------------------------|
D|--------------3---------|---------------1---------|-------------------------|--------------------------|
A|------------------------|-------------------------|-------------------------|--------------------------|
E|------------------------|-------------------------|-------------------------|--------------------------|
 |															   |
 |  														   |X2
 |															   |
e|------------------------|-------------------------|-------------------------|--------------------------|
B|------------------------|-------------------------|-------------------------|--------------------------|
G|--3-3-3-3-3-3-3-3-3-3-3-|-------------------------|--6-6-6-6-6-6-6-6-6-6-6--|--------------------------|
D|--3-3-3-3-3-3-3-3-3-3-3-|--4-4-4-4-4-4-4-4-4-4-4--|--6-6-6-6-6-6-6-6-6-6-6--|--6-6-6-6-6-6-6-6-6-6-6---|
A|--1-1-1-1-1-1-1-1-1-1-1-|--4-4-4-4-4-4-4-4-4-4-4--|--4-4-4-4-4-4-4-4-4-4-4--|--6-6-6-6-6-6-6-6-6-6-6---|
E|------------------------|--2-2-2-2-2-2-2-2-2-2-2--|-------------------------|--4-4-4-4-4-4-4-4-4-4-4---|

Guitar 1

e|------------6-6-6-6-6-|-18-18-18-18-18------------------------------------|
B|----------------------|---------------------------------------------------|
G|--3-3-3-3-3-----------|---------------------------------------------------|
D|----------------------|---------------------------------------------------|
A|----------------------|---------------------------------------------------|
E|----------------------|---------------------------------------------------|
 |										    |
 | Guitar 2  								    |
 |										    |
e|----------------------|---------------------------------------------------|
B|----------------------|---------------------------------------------------|
G|----------------------|---------------------------------------------------|
D|--8-8-8-8-8-8-8-8-8-8-|8-8-8-8-8-8//6-------------------------------------|
A|--8-8-8-8-8-8-8-8-8-8-|8-8-8-8-8-8//6-------------------------------------|
E|--6-6-6-6-6-6-6-6-6-6-|6-6-6-6-6-6//4-------------------------------------|


  Guitar 1

e|------------------|-----------------|------------------|----------------|
B|------------------|-----------------|------------------|----------------|
G|------------------|-----------------|------------------|----------------|
D|------------------|----x-x-x-x-x-6--|------------------|----6-6-x-x-x-6-|
E|------------------|----x-x-x-x-x-6--|------------------|----6-6-x-x-x-6-|
E|------------------|----x-x-x-x-x-4--|------------------|----4-4-x-x-x-4-|


e|------------------|-----------------|------------------|----------------|
B|------------------|-----------------|------------------|----------------|
G|------------------|-----------------|------------------|----------------|
D|------------------|----x-x-x-x-x-6--|------------------|----------------|
E|------------------|----x-x-x-x-x-6--|------------------|----------------|
E|------------------|----x-x-x-x-x-4--|------------------|----------------|


  Guitar 1 & 2

e|------------------------|-------------------------|-------------------------|--------------------------|
B|------------------------|-------------------------|-------------------------|--------------------------|
G|--3-3-3-3-3-3-3-3-3-3-3-|-------------------------|--6-6-6-6-6-6-6-6-6-6-6--|--------------------------|X4
D|--3-3-3-3-3-3-3-3-3-3-3-|--4-4-4-4-4-4-4-4-4-4-4--|--6-6-6-6-6-6-6-6-6-6-6--|--6-6-6-6-6-6-6-6-6-6-6---|
A|--1-1-1-1-1-1-1-1-1-1-1-|--4-4-4-4-4-4-4-4-4-4-4--|--4-4-4-4-4-4-4-4-4-4-4--|--6-6-6-6-6-6-6-6-6-6-6---|
E|------------------------|--2-2-2-2-2-2-2-2-2-2-2--|-------------------------|--4-4-4-4-4-4-4-4-4-4-4---|

  End On

e|-------|
B|-------|
G|--3~~--|
D|--3~~--|
A|--1~~--|
E|-------|

            
            
Suggest correction
Creating personal tab
Creating personal tab
You can edit any tab online and save it as your Personal.

You can edit, replace or remove any tab part or add personal notes – all changes will be seen only by you.

Personal tabs can be accessed anytime from any device, even offline.
Learn more »
Give kudos to tab author, rate the tab!
1 2 3 4 5
comments
print report bad tab
4 comments total. Showing first comments.
0 reply
badnflunz 20 Nov 09, 2005 10:52 AM

some power chords are IMMPOSIBLE!

0 reply
Social D Rox 167 Sep 07, 2007 09:05 AM

Not real good sry bro

0 reply
Social D Rox 167 Sep 07, 2007 09:05 AM

power chords wrong and some of the other stuff with both guitars. just really unaccurate

guest
You may want to rate the tab now too:
select rating
Wanna post a correction for this tab? Suggest correction