Oops, an error
Loading. Please wait.

En La Ciudad De La Furia Live tab

version 5
version 5

Whole song

  • Version del MTV Unplugged, link al video: https://youtu.be/FEzSxNOU6uk.
  • Version del MTV Unplugged, link al video: https://youtu.be/FEzSxNOU6uk.
  • Version del MTV Unplugged, link al video: https://youtu.be/FEzSxNOU6uk.
652 views 6 this week
no commentswrite comment
1 2 3 4 5
1 last vote to show rating
add to favorites
×
Save as Personal and add changes to this tab that will be seen only by you. Learn more ›
×
You can save this tab as Personal to edit and correct it or add notes. All changes will be seen only by you. Learn more »
launch autoscroll
font size
0
reset
how to read this tab
guitar tuner
backing track
0:00
0:00
edit
Autoscroll
slow
fast
+/-
esc
set tempo
stop
Author
Unregistered
Efectos Utilizados:

Guitarra Parker-Fly (
Multiefectos Digitech (Delay,Wah-Wah,Overdrive, Repetidores,etc) (


Indicaciones

10\12        Slide 
12^^              Full (1 tono)
12^            Full (1/2 tono)      
10h12      Hammer On 
12p10      Pull Off
~~~~             Vibración      
12^12      Esto significa subir un tono en Full y volver a bajarlo.
xx            Rasgado rápido sobre la misma cuerda.
+            Wah Abierto (sobre el talón)
-            Wah Cerrado (sobre la punta del pie)

Algunos segmentos de la canción que están entre (/*), están explicados a continuación:

(1) Para tocar esta parte con más facilidad he escrito los dedos 
sobre cada una de las notas para poder hacer los desplazamientos 
en las escalas más rápidamente. 1= índice, 2= medio; 3= anular; 4= 
meñique.


Acordes
Em 022033
G  320033
Bm 024432      

 
Minuto (7:08)              (1)*/   1 2 4  2   4   2 4  2  4  2        1
 Em                        
----------------------------------------------10---------------10-
---------------------------------------10-12----12-10-12-10\12----
-7~~~~--7--9-\-11--7--9---------7-9-11----------------------------
-------------------------9~~~~------------------------------------
------------------------------------------------------------------
------------------------------------------------------------------


                   G
                           
  3  1  3    1   3  1  3 */
                             
----10-------12----12-15^^----15-14-15-14-------------------------
-12----12\14----14------------------------15----------------------
---------------------------------------------14-12-11\12\11-~~~~--
------------------------------------------------------------------
------------------------------------------------------------------
------------------------------------------------------------------


                                                 +
------------------------------------------------------------------
----------------------------------------11-12-11-12-11-12-11-12---
-11h12p11----11-------------------11-12---------------------------
----------14----12-14-------12-14---------------------------------
----------------------12-14---------------------------------------
------------------------------------------------------------------


+      +      +      +      +                    Em       
------------------------------------------------------3-////(7)/--
11-12-14-12-11----11-12-11-12-11----------------------3-|||||||---
---------------12----------------12-11-9----9----9----0-\\\\\\\\--
-----------------------------------------12---12------------------
------------------------------------------------------------------
------------------------------------------------------------------


  +      +               -         -      -         +   +    +

--14^^-12-10-12---------------------------------------------------
----------------11-12-11------------------------------------------
-------------------------11-12-11--9-11-9--7-9-7---2^^-2^^-2^^2^^-
------------------------------------------------------------------
------------------------------------------------------------------
------------------------------------------------------------------


 +  +    +            Bm
--------------------7-\-14--14^^-14^14p12h14-12-10-12-10\12-12^---
------------------------------------------------------------------
-2^^2^^--2^2p0----------------------------------------------------
---------------2~~~-----------------------------------------------
------------------------------------------------------------------
------------------------------------------------------------------


------------------------------------------------------------------
-12^12p10\12-12^--------------------------------------------------
-----------------14-12--------------------------------------------
-----------------------14-12-14p12\14^--------14-xx-16-xx-17-xx---
------------------------------------------------------------------
------------------------------------------------------------------


                             Em
--------------------------------14---17^^--17^17^---19^^-19\17\19-
---------------------15-xx-17-xx------------------17--------------
--14-xx-16-xx-17-xx-----------------------------------------------
------------------------------------------------------------------
------------------------------------------------------------------
------------------------------------------------------------------


            +                 Bm
-19~~~~~--3-/////--------------14-15-19~~~~-22~~17~~16~~----------
----------3-|||||--------15-17-------------------------17~~15~~---
----------0-\\\\\-------------------------------------------------
------------------------------------------------------------------
------------------------------------------------------------------
------------------------------------------------------------------


                                              Em
-------------------------------------12--14-15xx-17xx-22xx--24----
--------------------------12~~15~~--------------=-----------------
-14^14-12---------12~~14~~----------------------------------------
----------12~~14~~------------------------------------------------
------------------------------------------------------------------
------------------------------------------------------------------

            
            
Suggest correction
Creating personal tab
Creating personal tab
You can edit any tab online and save it as your Personal.

You can edit, replace or remove any tab part or add personal notes – all changes will be seen only by you.

Personal tabs can be accessed anytime from any device, even offline.
Learn more »
Give kudos to tab author, rate the tab!
1 2 3 4 5
comments
print report bad tab
guest
Wanna post a correction for this tab? Suggest correction