Oops, an error
Loading. Please wait.

Signos bass

version 1
version 1

Whole song

Interactive

9,627 views 12 this week
no commentswrite comment
1 2 3 4 5
2 more votes to show rating
add to favorites
×
Save as Personal and add changes to this tab that will be seen only by you. Learn more ›
×
You can save this tab as Personal to edit and correct it or add notes. All changes will be seen only by you. Learn more »
launch autoscroll
font size
0
reset
guitar tuner
backing track
0:00
0:00
edit
Autoscroll
slow
fast
+/-
esc
set tempo
stop
Author
+++++++++++++++++++++++
| Soda Stereo- Signos |
+++++++++++++++++++++++

Tuning: EADG

Intro
1.
G|-------------|
D|-------------|
A|-------------|
E|-----------3-|

2.
G|-------------------------------------------------------|
D|-------------------------------------------------------|
A|--00-3-0x----0----2------------2------------0----------|
E|---------------33---3x----0-33---3x----3-11---1x-1-1-3-|

3.
G|-------------------------------------------------------|
D|---------------------------------3x----3---------------|
A|--00-3-0x----0----2------------2------------0----------|
E|---------------33---3x----0-33-----------11---1x-1-1-3-|

Verse
"No hay un modo..."
4.
G|-------------------------------------------------------|
D|-------------------------------------------------------|
A|--00-3-0x----0----2------------2------------0----------|
E|---------------33---3x----0-33---3x----3-11---1x-1-1-3-|

"Te doy todo..."
5.
G|-------------------------------------------------------|
D|---------------------------------3x----3---------------|
A|--00-3-0x----0----2------------2------------0----------|
E|---------------33---3x----0-33-----------11---1x-1-1-3-|

6.
G|---------------------|
D|---------------------|
A|-0~------------------|
E|-------------------3-|

"Si estás oculta..."
7.
G|-------------------------------------------------------|
D|-------------------------------------------------------|
A|--00-3-0x----0----2------------2------------0----------|
E|---------------33---3x----0-33---3x----3-11---1x-1-1-3-|

"Me amas a obscuras..."
8.
G|-------------------------------------------------------|
D|---------------------------------3x----3---------------|
A|--00-3-0x----0----2------------2------------0----------|
E|---------------33---3x----0-33-----------11---1x-1-1-3-|

Chorus
"Signos..."
9.
G|-------------------------------------------------------------------------------------------|
D|-------------------------------------------------------------------------------------------|
A|-0~--00~---0-5~--55~----0~--00~---0-5~--3~----0~--00~---0-5~--55~----0~--00~---0-5~--3~----|
E|---------3----------------------3---------------------3----------------------3-------------|

Outro
10.
G|---------------------------|
D|---------------------------|
A|---------------------------|
E|-3~-------0-3-0-3~-------3-|

11.
G|-------------------------------------------------------|
D|-------------------------------------------------------|
A|--00-3-0x----0----2------------2------------0----------|
E|---------------33---3x----0-33---3x----3-11---1x-1-1-3-|

12.
G|-------------------------------------------------------|
D|---------------------------------3x----3---------------|
A|--00-3-0x----0----2------------2------------0----------|
E|---------------33---3x----0-33-----------11---1x-1-1-3-|

Verse
"Mar de fondo..."
13.
G|-------------------------------------------------------|
D|-------------------------------------------------------|
A|--00-3-0x----0----2------------2------------0----------|
E|---------------33---3x----0-33---3x----3-11---1x-1-1-3-|

"Llámame pronto..."
14.
G|-------------------------------------------------------|
D|---------------------------------3x----3---------------|
A|--00-3-0x----0----2------------2------------0----------|
E|---------------33---3x----0-33-----------11---1x-1-1-3-|

15.
G|---------------------|
D|---------------------|
A|-0~------------------|
E|-------------------3-|

"Si algo cedes..."
16.
G|-------------------------------------------------------|
D|-------------------------------------------------------|
A|--00-3-0x----0----2------------2------------0----------|
E|---------------33---3x----0-33---3x----3-11---1x-1-1-3-|

"Con los dientes..."
17.
G|-------------------------------------------------------|
D|---------------------------------3x----3---------------|
A|--00-3-0x----0----2------------2------------0----------|
E|---------------33---3x----0-33-----------11---1x-1-1-3-|

Chorus
"Signos..."
18.
G|-------------------------------------------------------------------------------------------|
D|-------------------------------------------------------------------------------------------|
A|-0~--00~---0-5~--55~----0~--00~---0-5~--3~----0~--00~---0-5~--55~----0~--00~---0-5~--3~----|
E|---------3----------------------3---------------------3----------------------3-------------|

"Signos..."
19.
G|-------------------------------------------------------------------------------------------|
D|---------------------------------------------------------------------2~--22---2--0~--------|
A|-0~--00~---0-5~--55~----0~--00~---0-5~--3~----0~--00~---0-5~--55~-----------2--------3~----|
E|---------3----------------------3---------------------3------------------------------------|

Outro
20.
G|-----------------------------------|
D|-----------------------------------|
A|-----------------------------------|
E|-3~--------0-3-0-3~----------------|

Bridge
21.
G|-----------------------------------------|
D|-0~--3~----0~----------------------------|
A|---------------0~----3~--3~----0~--------|--x2
E|-----------------------------------3~----|

22.
G|------------------------------------------------11111111-|
D|-0~--3~----0~--------------------------22222222----------|
A|---------------0~----------------------------------------|
E|---------------------00000000-00000000-------------------|

Chorus
"Signos..."
23.
G|-------------------------------------------------------------------------------0---------|
D|---------------------------------------------------------------------2~--2-0-2---0~------|
A|-0~--00~---0-5~--55~----0~--00~---0-5~--3~----0~--00~---0-5~--55~--------------------3~--|
E|---------3----------------------3---------------------3----------------------------------|

"Signos..."
24.
G|-------------------------------------------------------------------------------0---------|
D|---------------------------------------------------------------------2~--2-0-2---0~------|
A|-0~--00~---0-5~--55~----0~--00~---0-5~--3~----0~--00~---0-5~--55~--------------------3~--|
E|---------3----------------------3---------------------3----------------------------------|

Outro
25.
G|-------------------------------------------------------------------------------0---------|
D|---------------------------------------------------------------------2~--2-0-2---0~------|
A|-0~--00~---0-5~--55~----0~--00~---0-5~--3~----0~--00~---0-5~--55~--------------------3~--|--x4
E|---------3----------------------3---------------------3----------------------------------|


Lyrics:

No hay un modo, no hay un punto exacto
Te doy todo y siempre guardo algo
Si estas oculta como sabra quien eres
Me amas a obscuras, duermes envuelta en redes

Signos, mi parte insegura
Bajo una luna hostil

Mar de fondo no caer en la trampa
Llamame pronto, acertijos bajo el agua
Si algo cedes, calmar tu histeria
Con los dientes rasgar tus medias

Signos, mi parte insegura
Bajo una luna hostil
Signos, Uniendo fisuras
figuras sin definir


+++++++++++++++++++++++++++++++++
| RaiLeff                       |
| Underground__Dora@Hotmail.Com |
+++++++++++++++++++++++++++++++++

            
            
Suggest correction
Creating personal tab
Creating personal tab
You can edit any tab online and save it as your Personal.

You can edit, replace or remove any tab part or add personal notes – all changes will be seen only by you.

Personal tabs can be accessed anytime from any device, even offline.
Learn more »
Give kudos to tab author, rate the tab!
1 2 3 4 5
comments
print report bad tab
guest
You may want to rate the tab now too:
select rating
Wanna post a correction for this tab? Suggest correction