Oops, an error
Loading. Please wait.

Nuclear Winter bass

version 1
version 1

Whole song

Interactive

by Sodom
1,824 views 3 this week
2 commentsread comments
1 2 3 4 5
3 more votes to show rating
add to favorites
×
Save as Personal and add changes to this tab that will be seen only by you. Learn more ›
×
You can save this tab as Personal to edit and correct it or add notes. All changes will be seen only by you. Learn more »
launch autoscroll
font size
0
reset
guitar tuner
edit
Autoscroll
slow
fast
+/-
esc
set tempo
stop
Difficulty
intermediate
x =  repeat x number of times
X between two sections = play both sections and the repeat them x number of times 
( ) = Let the note ring
\ = slide
h = hammer on
p = pull off

G---------------------------|
D---------------------------| x4
A-2\6--6-(6)----------------|
E---------------------------|


G------------------------------------------|
D------------------------------------------|
A-44444444444444444------------------------|
E-------------------3h2-0-0-2-0-0-2-0--2-3-|
                                                X2

G------------------------------------------|
D------------------------------------------|
A-44444444444444444------------------------|
E-------------------3h2-0-0-2-0-0-2-0--0-1-|


G---------------------------------------------|
D---------------------------------------------| x4
A---------1----------------------2h3-2h3------|
E-00000000--000000001-000000000----------(3)*-|*let the G ring the last time


G------------------------------------------|
D------------------------------------------|
A-44444444444444444------------------------|
E-------------------3h2-0-0-2-0-0-2-0--2-3-|
                                                X2

G------------------------------------------|
D------------------------------------------|
A-44444444444444444------------------------|
E-------------------3h2-0-0-2-0-0-2-0--0-1-|


G---------------------------------------------|
D---------------------------------------------| x4
A---------1----------------------2h3-2h3------|
E-00000000--000000001-000000000----------(3)*-|*let the G ring the last time


G-----------------------------------------------|
D-----------------------------------------------|
A-------------------------------------2h3-333p2-|
E-----------------------------------------------|



G------------------------------------------------|
D------------------------------------------------| x4
A--------------------------------------2h3-333p2-|
E-2h3-333p2-222h3-333p1-112h3-333p2-22-----------|


G------------------------------------------------|
D------------------------------------------------| x4
A--------------------------------------2h3-333p2-|
E-2h3-333p2-222p1-111p0-002h3-333p2-22-----------|

Guitar solo                              *play the E's here 2nd time*
G-----------------------------------------------------------------------|
D----------------------------------*7777777777777777777777777777777777*-|
A-----------------------------------------------------------------------| x3
E-33333333333333333322222222111111110000000000000000000000000000000000--|


G----------------------------------------|
D----------------------------------------|
A----------------------------------------| 
E-3333333333333333332222222211111111-(0)-|


G-----------------------------------|
D-----------------------------------|x2
A-----------------------------------|
E-000000002-000000003-000000000-2-3-|
                                              X4
                                        
G-----------------------------------|
D-----------------------------------|x2 
A-000000002-000000003-000000000-2-3-|
E-----------------------------------|


G-----------------------------------|
D-----------------------------------| 
A-----------------------------------|
E-000000002-000000003-000000000-2-3-|


G---------------|
D---------------| 
A---------------|
E-0--0-0--0-0---|


G---(5)----(3)--(3)--(3)-------|*use heavy distortion
D---(3)----(4)--(3)--(4)-------| x5
A---(0)----(0)--(0)--(0)-------|
E------------------------------|


G-------------------------------|
D-------------------------------| 
A-----------------7777777777777-|
E-0-00-0-00-00-0----------------|

2nd Guitar solo
G-----------------------------------|
D-----------------------------------| x2
A-----------------------------------|
E-000000002-000000003-000000000-2-3-|
                                              X4
                                        
G-----------------------------------|
D-----------------------------------|x2 
A-000000002-000000003-000000000-2-3-|
E-----------------------------------|


G----------------------------------------|
D----------------------------------------| x2
A----------------------------------------|
E-000000002-000000003-000000000-2-3--(0)*|* let ring 2nd time


G------------------------------------------|
D------------------------------------------|
A-44444444444444444------------------------|
E-------------------3h2-0-0-2-0-0-2-0--2-3-|
                                                X2

G------------------------------------------|
D------------------------------------------|
A-44444444444444444------------------------|
E-------------------3h2-0-0-2-0-0-2-0--0-1-|


G---------------------------------------------|
D---------------------------------------------| x4
A---------1----------------------2h3-2h3------|
E-00000000--000000001-000000000----------(3)*-|*let the G ring the last time


G------------|
D------------|
A------------|  
E-0--0--0--0-|

            
            
Suggest correction
Creating personal tab
Creating personal tab
You can edit any tab online and save it as your Personal.

You can edit, replace or remove any tab part or add personal notes – all changes will be seen only by you.

Personal tabs can be accessed anytime from any device, even offline.
Learn more »
Give kudos to tab author, rate the tab!
1 2 3 4 5
comments
print report bad tab
2 comments total.
0 reply
mike_157 31 Nov 22, 2007 04:46 PM

i have a correction to make where is says * use heavy distortion play
G-(4)--(3)--(2)--(2)-|
D-(2)--(2)--(2)--(3)-| instead of what is above
A-----|
E-----|

0 reply
mike_157 31 Dec 09, 2007 08:22 AM

another little mistake i made that you probably have noticed is where it says *play the E's here 2nd time* i put the 7's
on the wrong line they should be on the A line not the D line

guest
Wanna post a correction for this tab? Suggest correction