Oops, an error
Loading. Please wait.

Remember The Fallen bass

version 1
version 1

Whole song

Interactive

by Sodom
130 views 1 this week
1 commentread comment
1 2 3 4 5
3 more votes to show rating
add to favorites
×
Save as Personal and add changes to this tab that will be seen only by you. Learn more ›
×
You can save this tab as Personal to edit and correct it or add notes. All changes will be seen only by you. Learn more »
launch autoscroll
font size
0
reset
guitar tuner
edit
Autoscroll
slow
fast
+/-
esc
set tempo
stop
Difficulty
intermediate
Band   : Sodom
Song   : Remember The Fallen
Album  : Agent Orange
Year   : 1989
Tuning : EADG

Riff 1
G|-----|-----|-----|--------------------------------------------------|
D|-----|-----|-----|--------------------------------------------------|
A|-----|-----|-----|---------------------------------3-3-3-3-3-3-3-3--|
E|--0--|--0--|--0--|--1-1-1-1-1-1-1-1-1-1-1-1-1-1-1-------------------|

Riff 2
G|-----------------------------------------------------------------|
D|-----------------------------------------------------------------|
A|----------------------------0--2---------------------------------|
E|--0---0-0-0--0-0-0--0-0-3------------0-0-0---0-0--1-1-1---3-3-3--|

Riff 3
G|------------------------------------------------------------------|
D|------------------------------------------------------------------|
A|-----------------------------5--0----0-0-0---0-0------------------|
E|--2---2-2-2--2-2-2--2-2-2--------------------------3-3-3---5-5-5--|

Riff 4
G|-------------------------------------------------------------------------------------------|
D|-------------------------------------------------------------------------------------------|
A|-------------------------------------------------------------------2--2-2-2-2--3--3-3-3-3--|
E|--0---0-0-0-0---0-0-0-0---0-0-0-0---0-0-0-0---1--1-1-1-1--1-1-1-1--------------------------|

Riff 5
G|-------------------------------------------------------------------------------------------|
D|-------------------------------------------------------------------------------------------|
A|-------------------------------------------------------------------3--3-3-3-3--2--2-2-2-2--|
E|--0---0-0-0-0---0-0-0-0---0-0-0-0---0-0-0-0---1--1-1-1-1--1-1-1-1--------------------------|

Riff 6
G|-----------------|----------------------|
D|-----------------|----------------------|
A|----------2--3---|----------3--2--------|
E|--0---1----------|--0---1------------0--|

            
            
Suggest correction
Creating personal tab
Creating personal tab
You can edit any tab online and save it as your Personal.

You can edit, replace or remove any tab part or add personal notes – all changes will be seen only by you.

Personal tabs can be accessed anytime from any device, even offline.
Learn more »
Give kudos to tab author, rate the tab!
1 2 3 4 5
comments
print report bad tab
1 comment total.
0 reply
inflames42 611 Jul 22, 2017 08:07 AM

this is my tab, why is not showing up in my contributions?

guest
Wanna post a correction for this tab? Suggest correction