Oops, an error
Loading. Please wait.

Tired And Red bass

version 1
version 1

Whole song

Interactive

by Sodom
25 views 1 this week
no commentswrite comment
1 2 3 4 5
3 more votes to show rating
add to favorites
×
Save as Personal and add changes to this tab that will be seen only by you. Learn more ›
×
You can save this tab as Personal to edit and correct it or add notes. All changes will be seen only by you. Learn more »
launch autoscroll
font size
0
reset
guitar tuner
edit
Autoscroll
slow
fast
+/-
esc
set tempo
stop
Artist : Sodom
Album : Agent Orange
Song : Tired And Red
Year : 1989
Tuning : EADG

[Intro]
G|-----------------------------------------------------------------------------------------| (x4)
D|--------------------3--------------------------------------------------------------------|
A|--------------------------------------------1--------------------------------------------|
E|--0--0--0--0***-----------0--0--0--0***-----------0--0--0--0***-----1--1--1--1--1--1--0--|

[Pre-Verse] (also Chorus)
G|-----------------------------------------------------------------|
D|-----------------------------------------------------------------|
A|--------------------2--2--2--2--2--2--2--2--3--3--3--3--3--3--3--|
E|--0--0--0--0--0--0-----------------------------------------------|
                                                                            (x2)
G|-----------------------------------------------------------------|       
D|-----------------------------------------------------------------|
A|--------------------2--2--2--2--2--2--2--2--1--1--1--1--1--1--1--|
E|--0--0--0--0--0--0-----------------------------------------------|

[Verse]
G|-----------------------------------|-----------------------------------|
D|-----------------------------------|--7--7--7--7--7--7--7--7-----------|
A|--0--0--0--0--0--0--0--0--3----1---|--------------------------3--1-----|
E|----------------------------3------|--------------------------------1--|

G|-----------------------------------|--------------------------------7--9--7---------|
D|-----------------------------------|--7--7--7--7--7--7--7--7---7--9----------9--7---|
A|--0--0--0--0--0--0--0--0--3----1---|------------------------------------------------|
E|----------------------------3------|------------------------------------------------|

G|-----------------------------------|-----------------------------------|
D|-----------------------------------|--7--7--7--7--7--7--7--7-----------|
A|--0--0--0--0--0--0--0--0--3----1---|--------------------------3--1-----|
E|----------------------------3------|--------------------------------1--|

G|-----------------------------------|-------------------------------|
D|-----------------------------------|--7--7--7--7--7--7--7--7-------|
A|--0--0--0--0--0--0--0--0--3----1---|---------------------------7\--|
E|----------------------------3------|-------------------------------|

[Chorus]
G|-----------------------------------------------------------------|
D|-----------------------------------------------------------------|
A|--------------------2--2--2--2--2--2--2--2--3--3--3--3--3--3--3--|
E|--0--0--0--0--0--0-----------------------------------------------|
                                                                            (x2)
G|-----------------------------------------------------------------|       
D|-----------------------------------------------------------------|
A|--------------------2--2--2--2--2--2--2--2--1--1--1--1--1--1--1--|
E|--0--0--0--0--0--0-----------------------------------------------|

[Verse]
G|-----------------------------------|-----------------------------------|
D|-----------------------------------|--7--7--7--7--7--7--7--7-----------|
A|--0--0--0--0--0--0--0--0--3----1---|--------------------------3--1-----|
E|----------------------------3------|--------------------------------1--|

G|-----------------------------------|--------------------------------7--9--7---------|
D|-----------------------------------|--7--7--7--7--7--7--7--7---7--9----------9--7---|
A|--0--0--0--0--0--0--0--0--3----1---|------------------------------------------------|
E|----------------------------3------|------------------------------------------------|

G|-----------------------------------|-----------------------------------|
D|-----------------------------------|--7--7--7--7--7--7--7--7-----------|
A|--0--0--0--0--0--0--0--0--3----1---|--------------------------3--1-----|
E|----------------------------3------|--------------------------------1--|

G|-----------------------------------|-------------------------------|
D|-----------------------------------|--7--7--7--7--7--7--7--7-------|
A|--0--0--0--0--0--0--0--0--3----1---|---------------------------7\--|
E|----------------------------3------|-------------------------------|

[Chorus]
G|-----------------------------------------------------------------|
D|-----------------------------------------------------------------|
A|--------------------2--2--2--2--2--2--2--2--3--3--3--3--3--3--3--|
E|--0--0--0--0--0--0-----------------------------------------------|
                                                                            (x2)
G|-----------------------------------------------------------------|       
D|-----------------------------------------------------------------|
A|--------------------2--2--2--2--2--2--2--2--1--1--1--1--1--1--1--|
E|--0--0--0--0--0--0-----------------------------------------------| and you end with an open E

[Acoustic Part] (listen for the timing, there are many breaks between these lines)
G|--------|--------|---------------|
D|--------|--------|---------------|
A|--------|-----3--|--3h5h3-----2--|
E|--0--3--|--3-----|---------------|

After the acoustic [Pre-Solo]
G|--------------------------------------------------------------------|
D|--------------------------------------------------------------------|
A|-----------------5--7-----5--7-----------------------8--7-----8--7--|
E|--0--0--0--0***-----------------------0--0--0--0***-----------------|
                                                                         (x2)
G|----------------------------------------------------------------|
D|----------------------------------------------------5-----5-----|
A|-----------------5--7-----5--7-------------------------7-----7--|
E|--0--0--0--0***-----------------------0--0--0--0***-------------|

[Solo]
G|--------------------------------------------| (x2)
D|--------------------------------------------|
A|--------------------------------------------|
E|--3--0--0--3--0--0--3--0--0--3--0--0--3--2--|

G|----------------------------------| (x1)
D|----------------------------------|
A|-----------------5--7-----5--7----|
E|--0--0--0--0***-------------------|

G|--------------------------------------------| (x2)
D|--------------------------------------------|
A|--------------------------------------------|
E|--3--0--0--3--0--0--3--0--0--3--0--0--3--2--|

G|-----------------------------------------------------------------------------------| (x3)
D|-----------------------------------------------------------------------------------|
A|-----------------------------------------------------------------------------------|
E|--0--0--0--0--0--0--0--0--1--1--1--1--1--1--3--3--3--3--3--3--3--3--3--3-----3--2--|


G|--------------------------------------------| 
D|--------------------------------------------|
A|--------------------------------------------|
E|--0--0--0--0--0--0--0--0--1--1--1--1--1--1--|

[Pre-Solo Riff]
G|--------------------------------------------------------------------|
D|--------------------------------------------------------------------|
A|-----------------5--7-----5--7-----------------------8--7-----8--7--|
E|--0--0--0--0***-----------------------0--0--0--0***-----------------|
                                                                         (x2)
G|----------------------------------------------------------------|
D|----------------------------------------------------5-----5-----|
A|-----------------5--7-----5--7-------------------------7-----7--|
E|--0--0--0--0***-----------------------0--0--0--0***-------------|

[Chorus]
G|-----------------------------------------------------------------|
D|-----------------------------------------------------------------|
A|--------------------2--2--2--2--2--2--2--2--3--3--3--3--3--3--3--|
E|--0--0--0--0--0--0-----------------------------------------------|
                                                                            (x2)
G|-----------------------------------------------------------------|       
D|-----------------------------------------------------------------|
A|--------------------2--2--2--2--2--2--2--2--1--1--1--1--1--1--1--|
E|--0--0--0--0--0--0-----------------------------------------------|

[Verse]
G|-----------------------------------|-----------------------------------|
D|-----------------------------------|--7--7--7--7--7--7--7--7-----------|
A|--0--0--0--0--0--0--0--0--3----1---|--------------------------3--1-----|
E|----------------------------3------|--------------------------------1--|

G|-----------------------------------|--------------------------------7--9--7---------|
D|-----------------------------------|--7--7--7--7--7--7--7--7---7--9----------9--7---|
A|--0--0--0--0--0--0--0--0--3----1---|------------------------------------------------|
E|----------------------------3------|------------------------------------------------|

G|-----------------------------------|-----------------------------------|
D|-----------------------------------|--7--7--7--7--7--7--7--7-----------|
A|--0--0--0--0--0--0--0--0--3----1---|--------------------------3--1-----|
E|----------------------------3------|--------------------------------1--|

G|-----------------------------------|-------------------------------|
D|-----------------------------------|--7--7--7--7--7--7--7--7-------|
A|--0--0--0--0--0--0--0--0--3----1---|---------------------------7\--|
E|----------------------------3------|-------------------------------|

[Chorus]
G|-----------------------------------------------------------------|
D|-----------------------------------------------------------------|
A|--------------------2--2--2--2--2--2--2--2--3--3--3--3--3--3--3--|
E|--0--0--0--0--0--0-----------------------------------------------|
                                                                            (x2)
G|-----------------------------------------------------------------|       
D|-----------------------------------------------------------------|
A|--------------------2--2--2--2--2--2--2--2--1--1--1--1--1--1--1--|
E|--0--0--0--0--0--0-----------------------------------------------|

[Ending riff] until fade out
G|--------------------------------------------------------------------------| (x2)
D|--------------------------------------------------------------------------|
A|--------------------------------------------------------------------------|
E|--0--0--0--0--0--0--0--0--1--0--1--0--0--0--0--0--0--0--0--1--0--1--0--3--|

            
            
Suggest correction
Creating personal tab
Creating personal tab
You can edit any tab online and save it as your Personal.

You can edit, replace or remove any tab part or add personal notes – all changes will be seen only by you.

Personal tabs can be accessed anytime from any device, even offline.
Learn more »
Give kudos to tab author, rate the tab!
1 2 3 4 5
comments
print report bad tab
guest
You may want to rate the tab now too:
select rating
Wanna post a correction for this tab? Suggest correction