Oops, an error
Loading. Please wait.

Tainted Love tab

version 3
version 3

Whole song

Interactive

2,314 views 21 this week
1 commentread comment
1 2 3 4 5
x 6
add to favorites
×
Save as Personal and add changes to this tab that will be seen only by you. Learn more ›
×
You can save this tab as Personal to edit and correct it or add notes. All changes will be seen only by you. Learn more »
launch autoscroll
font size
0
reset
how to read this tab
guitar tuner
backing track
0:00
0:00
edit
Autoscroll
slow
fast
+/-
esc
set tempo
stop
Author
Difficulty
[Intro]
e|-----------------------------------------------|
B|-8-8~------------------------------------------|
G|-----------------------8-8--5~---------8-8--5~-|
D|------x-5-5~-x-5-5-8-8-8-8-85~-5-5-8-8-8-8-85~-|
A|------x-5-5~-x-5-5-8-8-6-6-83~-5-5-8-8-6-6-83~-|
E|------x-3-3~-x-3-3-6-6-----6---3-3-6-6-----6---|

[Verse]
e|-----------------------------------------------------------------|
B|-----------------------------------------------------------------|
G|-----------------------------------------------------------------| (x2)
D|-----------------5-5-------------5-5-----------------------------|
A|---------6-6---3-5-5-----6-6---3-5-5-----6-6---3-----------------|
E|-3-3-6-6-----6---3-3-6-6-----6---3-3-6-6-----6---3-3-3-3-6-6-6-6-|

Sometimes I feel I've got to run away. I got to get away from the pain you drive into the heart of me.
The love we share seems to go nowhere. And I've lost my light. I toss and turn, I can't sleep at night

[Pre-Chorus]
e|---------------------------------------------------------------------------------|
B|---------------------------------------------------------------------------------|
G|---------------------------------------------------------------------------------|
D|---------------------------------------------------------------------------------|
A|---------------------------------6-6-6-6-6-6-6-6-3-3-3-3-3-3-3-3-3-3-3-3-3-3-3-3-|
E|-3-3-3-3-3-3-3-3-6-6-6-6-6-6-6-6-------------------------------------------------|

Once I ran to you (I ran). Now I run from you.
This tainted love you've given, I give you all a boy could give you.
Take my tears and that's not nearly ALL!

[Chorus]
e|-----------------|
B|-----------------|
G|---------8-8--5~-| (x2)
D|-5-5-8-8-8-8-85~-|
A|-5-5-8-8-6-6-83~-|
E|-3-3-6-6-----6---|

Tainted love (oh)
Tainted love

[Verse]
e|-----------------------------------------------------------------|
B|-----------------------------------------------------------------|
G|-----------------------------------------------------------------| (x2)
D|-----------------5-5-------------5-5-----------------------------|
A|---------6-6---3-5-5-----6-6---3-5-5-----6-6---3-----------------|
E|-3-3-6-6-----6---3-3-6-6-----6---3-3-6-6-----6---3-3-3-3-6-6-6-6-|

Now I know I've got to run away. I got to get away, you don't really want any more from me.
To make things right you need someone to hold you tight.
And you think love is to pray. But I'm sorry, I don't pray that way.

[Pre-Chorus]
e|---------------------------------------------------------------------------------|
B|---------------------------------------------------------------------------------|
G|---------------------------------------------------------------------------------|
D|---------------------------------------------------------------------------------|
A|---------------------------------6-6-6-6-6-6-6-6-3-3-3-3-3-3-3-3-3-3-3-3-3-3-3-3-|
E|-3-3-3-3-3-3-3-3-6-6-6-6-6-6-6-6-------------------------------------------------|

Once I ran to you (I ran). Now I run from you.
This tainted love you've given, I give you all a boy could give you.
Take my tears and that's not nearly ALL!

[Chorus]
e|-----------------|
B|-----------------|
G|---------8-8--5~-| (x3)
D|-5-5-8-8-8-8-85~-|
A|-5-5-8-8-6-6-83~-|
E|-3-3-6-6-----6---|

Tainted love (oh)
Tainted love
Don't touch me, please, for I cannot stand the way you tease.

e|---------------------------------|
B|---------------------------------|
G|---------------------------------| 
D|-5-5-----------------------------|
A|-5-5-----6-6---3-----------------|
E|-3-3-6-6-----6---3-3-3-3-6-6-6-6-|

I love you though you hurt me so. Now I'm gonna pack my things and go.

[Outro]
e|-----------------|
B|-----------------|
G|---------8-8--5~-| (x2)
D|-5-5-8-8-8-8-85~-|
A|-5-5-8-8-6-6-83~-|
E|-3-3-6-6-----6---|

Tainted love (oh). Tainted love (oh). Tainted love (oh). Tainted love (oh)
Touch me, baby, tainted love. Touch me, baby, tainted love. Tainted love (oh). Tainted love (oh)
Tainted love. Tainted love......


************************************

| ~  Vibrato
| x  Dead note

************************************

            
            
Suggest correction
Creating personal tab
Creating personal tab
You can edit any tab online and save it as your Personal.

You can edit, replace or remove any tab part or add personal notes – all changes will be seen only by you.

Personal tabs can be accessed anytime from any device, even offline.
Learn more »
comments
print report bad tab
1 comment total.
0 reply
the_tabber_b 10 Jan 23, 2016 06:02 PM

didn't like this contribution

guest
You may want to rate the tab now too:
select rating
Wanna post a correction for this tab? Suggest correction