Oops, an error
Loading. Please wait.

Swallowhole tab

2,126 views 1 this week
no commentswrite comment
1 2 3 4 5
2 more votes to show rating
add to favorites
×
Save as Personal and add changes to this tab that will be seen only by you. Learn more ›
×
You can save this tab as Personal to edit and correct it or add notes. All changes will be seen only by you. Learn more »
launch autoscroll
font size
0
reset
how to read this tab
guitar tuner
edit
Autoscroll
slow
fast
+/-
esc
set tempo
stop
Author
Difficulty
No rhythms are tabbed, but notes are spaced according to how long they
are except where noted.  Now good luck finding a drummer who can play this one.


                                                 4x
C#-||------------------|---------------------||--||--------------------------|
G#-||-------------------|---------------------||--||-------------------------|
E--||*-----------------|--------------------*||--||*-------------------------|
B--||*-----------------|--------------------*||--||*--8-----5--6--5--6-------|
F#-||-8----5--6--5--6--|--9-----5--6--5--6---||--||--------------------------|
C#-||-6----3--4--3--4--|--7-----3--4--3--4---||--||--------------------------|
               P.M.---------        P.M.---------         pick 16------------|th notes

                          2x
C#-|------------------||--||---------------------|--------------------------|
G#-|------------------||--||---------------------|--------------------------|
E--|-----------------*||--||*--------------------|--------------------------|
B--|-9---5--6--5--6--*||--||*--------------------|--------------------------|
F#-|------------------||--||---8-----5--6--5--6--|--9-----5--6--5--6--------|
C#-|------------------||--||---6-----3--4--3--4--|--7-----3--4--3--4--------|


     4x       Gtr. 2                                    2x
C#-||-||---------------------|----------------------||--||------------------|
G#-||-||---------------------|----------------------||--||------------------|
E-*||-||*--------------------|---------------------*||--||*-----------------|
B-*||-||*-11-----8--9--8--9--|--12-----8--9--8--9--*||--||*-----------------|
F#-||-||---------------------|----------------------||--||---8--------------|
C#-||-||---------------------|----------------------||--||---6--------------|
              pick 16th notes

                                      4x
C#----------|---------------------||--------------------||-------------------|
G#----------|---------------------||--------------------||-------------------|
E-----------|--------------------*||--------------------||*------------------|
B-----------|--------------------*||--------------------||*--------4---------|
F#-5-6-5-6--|--9-----5--6--5--6---||--8-----5--6--5--6--||---4--5--2---------|
C#-3-4-3-4--|--7-----3--4--3--4---||--6-----3--4--3--4--||---2--3------------|
    P.M.---------        P.M.---------          P.M.---------    P.M.--------|

                   *these 2 are 16th notes                     2x
C#----------------------|---------------------------------||-----------------|
G#----------------------|---------------------------------||-----------------|
E-----------------------|--------------------------------*||-----------------|
B-----5-----------------|--------4--------5--------------*||-----------------|
F#-4-5-3-4--5-*6-*6--3--|--4--5--2--4--5--3--4--5--6--3---||-----------------|
C#-2-3---2--3-*4-*4--1--|--2--3-----2--3-----2--3--4--1---||-----------------|
    P.M.--   P.M.---------     P.M.--   P.M.--   P.M.------------------------|

                                                                      2x
C#-------||---------------------------|---------------------------||--------|
G#-------||---------------------------|---------------------------||--------|
E--------||*--------3-----4-----------|--8-----7-----------------*||--------|
B--------||*--4--5--3-----4-----5-----|--8-----7-----9-----8-----*||--------|
F#-------||---4--5--1-----2-----5-----|--6-----5-----9-----8------||--------|
C#-------||---2--3--1-----2-----3-----|--6-----5-----7-----6------||--------|
                  P.M.-- first time only

                                  3x
C#-||-------------------------||--------------------------||----------------|
G#-||-------------------------||--------------------------||----------------|
E--||*-----------------------*||--------------------------||*--------3------|
B--||*-----6--------8-----8--*||--------------------------||*--4--5--3------|
F#-||-5-6--4--7--8--6--6--6---||--------4--------6--------||---4--5--1------|
C#-||-3-4-----5--6-----6------||--3--4-----5--6-----6--5--||---2--3--1------|
         P.M.--   P.M.--   P.M.

                                            2x
C#-------------|------------------------||--||------------------------------|
G#-------------|------------------------||--||------------------------------|
E--4-----------|--8-----7--------------*||--||*-----------------------------|
B--4-----5-----|--8-----7-----9-----8--*||--||*--------4--------5-----------|
F#-2-----5-----|--6-----5-----9-----8---||--||---4--5--2--4--5--3-----------|
C#-2-----3-----|--6-----5-----7-----6---||--||---2--3-----2--3--------------|
                                                     P.M.--   P.M.--

          *these 2 are 16th notes                    2x
C#-------------|---------------------------------||--||----------------------|
G#-------------|---------------------------------||--||----------------------|
E--------------|--------------------------------*||--||*---------------------|
B--------------|--------4--------5--------------*||--||*---------------------|
F#-4-5-*6-*6-3-|--4--5--2--4--5--3--4--5--6--3---||--||---8-----------9------|
C#-2-3-*4-*4-1-|--2--3-----2--3-----2--3--4--1---||--||---6-----------7------|
    P.M.---------     P.M.--   P.M.--   P.M.---------------------------------|

              4x       Gtr. 2                   4x
C#--------||--||----------------------------||--||--------------------------|
G#--------||--||----------------------------||--||--------------------------|
E--------*||--||*--------------------------*||--||*-------------------------|
B--------*||--||*--------------------------*||--||*-------------------------|
F#-5-6-7--||--||---4-----------5--1--2--3---||--||---8-----------9----------|
C#-3-4-5--||--||----------------------------||--||---6-----------7----------|
    P.M --   -         pick 16th notes

              4x
C#--------||-----||---------------------------|-----------------------------|
G#--------||-----||---------------------------|-----------------------------|
E--------*||-----||*--4-----------------------|--------------5--------------|
B--------*||-----||*--2-----4-----5-----6-----|--------------3--5--4--5-----|
F#-5-6-7--||-----||---2-----2-----3-----4-----|--6-----5-----3--3--2--3-----|
C#-3-4-5--||-----||---------------------------|--4-----3--------------------|
    P.M --   -


C#-|-----------------------|--------------------------|---------------------|
G#-|-----------------------|--------------------------|---------------------|
E--|-4---------------------|--------------------------|--4------------------|
B--|-2---4-----5-----6-----|--------------------------|--2-----4-----5------|
F#-|-2---2-----3-----4-----|--6-----5-----4--5--6-----|--2-----2-----3------|
C#-|-----------------------|--4-----3-----2--3--4--0--|---------------------|

C#-------|--------------------------|-----------------------|---------------|
G#-------|--------------------------|-----------------------|---------------|
E--------|--------------5-----------|--4--------------------|---------------|
B--6-----|--------------3--5--4--5--|--2-----4-----5-----6--|---------------|
F#-4-----|--6-----5-----3--3--2--3--|--2-----2-----3-----4--|--6-----5------|
C#-------|--4-----3-----------------|-----------------------|--4-----3------|


                 2x
C#-----------||--||---------------------------|-----------------------|------|
G#-----------||--||---------------------------|-----------------------|------|
E-----------*||--||*--------------------------|-----------------------|------|
B-----------*||--||*--------------------------|-----------------------|------|
F#-4--5--6---||--||---2-----9-----7--8--7--8--|--9-----8-----7-----8--|------|
C#-2--3--4---||--||---0-----7-----5--6--5--6--|--7-----6-----5-----6--|------|
       P.M.------------------------------------------------------------------|

                                                        2x
C#----------------------|---------------------------||-----------||---------|
G#----------------------|---------------------------||-----------||---------|
E-----------------------|--------------------------*||-----------||*--------|
B--9--------------------|--------------------------*||-----------||*--------|
F#-7--9-----7--8--7--8--|--9-----8-----7-----8------||-----------||---5-----|
C#-7--7-----5--6--5--6--|--7-----6-----5-----6--17\-||-----------||---3-----|
                                                    2nd time only

                                                     2x
C#-------------------|---------------------------||-------------------------|
G#-------------------|---------------------------||-------------------------|
E--------------------|--------------------------*||-------------------------|
B--------------------|--------------------------*||-------------------------|
F#-6-----7-----------|--5-----------6-----7------||--2-----9-----7--8--7----|
C#-4-----5-----------|--3-----------4-----5------||--0-----7-----5--6--5----|

C#---|---------------------|--------------------------|---------------------|
G#---|---------------------|--------------------------|---------------------|
E----|---------------------|--------------------------|---------------------|
B----|---------------------|--9-----------------------|---------------------|
F#-8-|--9---8-----7-----8--|--7-----9-----7--8--7--8--|--9-----8-----7------|
C#-6-|--7---6-----5-----6--|--7-----7-----5--6--5--6--|--7-----6-----5------|


                                                                         4x
C#----------||---------------------------|---------------------------||-----|
G#----------||---------------------------|---------------------------||-----|
E-----------||*--------------------------|--------------------------*||-----|
B-----------||*--------------------------|--------------------------*||-----|
F#-8--------||---5--6--------7-----------|--5-----------6-----7------||-----|
C#-6--17\---||---3--4--------5-----------|--3-----------4-----5------||-----|

C#-||-------------------------|---------------------------|-----------------|
G#-||-------------------------|---------------------------|-----------------|
E--||*------------------------|---------------------------|-----------------|
B--||*-----------------10-----|--------------------10-----|-----------------|
F#-||-9----9--9-----9--8------|--9-----9--9-----9--8------|--9-----9--9-----|
C#-||-7----7--7-----7--8------|--7-----7--7-----7--8------|--7-----7--7-----|


C#--------|---------------------|---------------------------|---------------|
G#--------|---------------------|---------------------------|---------------|
E---------|---------------------|---------------------------|---------------|
B-----10--|---------------------|--------------------10-----|---------------|
F#-9--8---|--10--9--8--9--8--7--|--9-----9--9-----9--8------|--9-----9------|
C#-7--8---|--8---7--6--7--6--5--|--7-----7--7-----7--8------|--7-----7------|


                                                                      2x
C#--------------|---------------------------|---------------------||--------|
G#--------------|---------------------------|---------------------||--------|
E---------------|---------------------------|--------------------*||--------|
B--------10-----|--------------------10-----|-----5-----4--------*||--------|
F#-9--9--8------|--9-----9--9-----9--8------|--5--3--5--2--5--4---||--------|
C#-7--7--8------|--7-----7--7-----7--8------|--3--3--3--2--3--2---||--------|


                               4x
C#-||----------------------||--------||--------------------------|----------|
G#-||----------------------||--------||--------------------------|----------|
E--||*--------------------*||--------||--------------------------|----------|
B--||*--------------------*||--------||--------------------------|----------|
F#-||----------------------||--------||--5--7--------8--7--------|--5--7----|
C#-||-0-0--0-----------19\-||--------||--3--5-----0--6--5-----0--|--3--5----|

C#----------||--||--------------------------|-------------------------------|
G#----------||--||--------------------------|-------------------------------|
E-----------||--||*-------------------------|-------------------------------|
B-----------||--||*-------------------------|-------------------------------|
F#-7--------||--||---------7-----5h7-----7--|--5h7p5-----5------------------|
C#-5--------||--||---0----------------------|---------7-----7--5------------|


           4x
C#-----||--------------------------------|--------------|--------------|----|
G#-----||--------------------------------|--------------|--------------|----|
E-----*||--------------------------------|--------------|--------------|----|
B-----*||--------------------------------|--------------|--------------|----|
F#-----||--------------------------------|--5--7--------|--8--7--------|----|
C#-3~~~||--------------------------------|--3--5-----0--|--6--5-----0--|----|
    leave out this beat 4th time


C#-------|-------------------||--------------------------|------------------|
G#-------|-------------------||--------------------------|------------------|
E--------|-------------------||*-------------------------|------------------|
B--------|-------------------||*-------------------------|------------------|
F#-5-7-7-|-------------------||---------7-----5h7-----7--|--5h7p5-----5-----|
C#-3-5-5-|--(5)--------------||---0----------------------|---------7--------|


                 4x
C#-----------||--------------------------------|--------------|-------------|
G#-----------||--------------------------------|--------------|-------------|
E-----------*||--------------------------------|--------------|-------------|
B-----------*||--------------------------------|--------------|-------------|
F#-----------||--------------------------------|--5--7--------|--8--7-------|
C#-7-5-3~~~--||--------------------------------|--3--5-----0--|--6--5-------|
          leave out this beat 4th time


C#----|--------|--------------------|----------------------|----------------|
G#----|--------|--------------------|----------------------|----------------|
E-----|--------|--------------------|----------------------|----------------|
B-----|--------|--------------------|----------------------|--5h7p5---------|
F#----|-5-7-7--|--------------------|----------------5--7--|---------7------|
C#-0--|-3-5-5--|--------------12\---|--0--(0)--5--7--------|----------------|
                                           play note 1st time only

                                                                     4x
C#--------------|-------------------|----------------------------||---------|
G#--------------|-------------------|----------------------------||---------|
E---------------|-------------------|---------------------------*||---------|
B-5-------------|-------------------|--3h5p3-----3--------------*||---------|
F#---7-5--------|-------------3--5--|---------5-----5--3---------||---------|
C#--------7-----|-0--0--3--5--------|---------------------5------||---------|

C#-||----------------------------|---------------------|--------------------|
G#-||----------------------------|---------------------|--------------------|
E--||*---------------------------|---------------------|--------------------|
B--||*---------------------------|---------------------|--------------------|
F#-||----------------5-----6-----|--7-----10--9--8--7--|-----2--5--6--------|
C#-||-(0)----(0)-----3-----4-----|--5-----8---7--6--0--|-----0--3--4--------|
         play 1st time only

                                      2x
C#-----|---------------------------||--||-----------------------------|-----|
G#-----|---------------------------||--||-----------------------------|-----|
E------|--------------------------*||--||*----------------------------|-----|
B------|--------------------------*||--||*----------------------------|-----|
F#-9-8-|-7--8--7--6--7--6--5-------||--||-----------------2-----3-----|-----|
C#-7-6-|-5--6--5--4--5--4--3--0----||--||---(0)-----------3-----4-----|-----|

                                                                          2x
C#----------------|-----------------------|---------------------------||----|
G#----------------|-----------------------|---------------------------||----|
E-----------------|-----------------------|--------------------------*||----|
B-----------------|-----------------------|--------------------------*||----|
F#-4--7--6--5--7--|-----2--2--3-----6--5--|--4--5--4--3--2--3--2------||----|
C#-5--8--7--6--0--|-----0--3--4-----7--6--|--5--6--5--4--3--4--3--0---||----|


                                                4x
C#----||---||---------------|---------------||--||-----------------|--------|
G#----||---||---------------|---------------||--||-----------------|--------|
E-----||*--||*--------------|--------------*||--||*----------------|--------|
B-----||*--||*-----5--3-----|--------------*||--||*----------------|--------|
F#----||---||---5--3--1--5--|---------------||--||---5\---7--6--5--|--------|
C#----||---||---3--3--1--3--|--0--2--3--2---||--||---3\---5--4--3--|--------|
                                   pick 16th notes

                 4x                                    4x   2x
C#----------||--||-----------------|--------------||---||------------------|
G#----------||--||-----------------|--------------||---||------------------|
E----------*||--||*----------------|-------------*||--*||------------------|
B----------*||--||*----------------|-------------*||--*||------------------|
F#----------||--||---10\---3--9\---|--3--8\---3---||---||------------------|
C#-2-5-4-3--||--||---8-\---1--7\---|--1--6\---1---||---||------------------|
    pick 16th notes

            
            
Suggest correction
Creating personal tab
Creating personal tab
You can edit any tab online and save it as your Personal.

You can edit, replace or remove any tab part or add personal notes – all changes will be seen only by you.

Personal tabs can be accessed anytime from any device, even offline.
Learn more »
Give kudos to tab author, rate the tab!
1 2 3 4 5
comments
print report bad tab
guest
You may want to rate the tab now too:
select rating
Wanna post a correction for this tab? Suggest correction