Oops, an error
Loading. Please wait.

Stabbing The Drama bass

version 2
version 2

Whole song

Interactive

1,451 views 1 this week
no commentswrite comment
1 2 3 4 5
2 more votes to show rating
add to favorites
×
Save as Personal and add changes to this tab that will be seen only by you. Learn more ›
×
You can save this tab as Personal to edit and correct it or add notes. All changes will be seen only by you. Learn more »
launch autoscroll
font size
0
reset
guitar tuner
edit
Autoscroll
slow
fast
+/-
esc
set tempo
stop
Author
Band:Soilwork
Album:Stabbing the drama
Song:Stabbing the drama
Tuning:BEAD
Tabber:v.s.bassist

Intro
|-----------------------|
|-----------------------|
|-----------------------|
|-0000000---0000000--0~-|

|------------|---------|
|------------|---------|
|---7---7----|---7---7-|
|-00--00--0~-|-00--00--|

Prechorus
|--------------------------|
|--------------------------|
|--------------------------|
|-0000000-00-00000-0-0-0-0-|
 4x

|----------------------------------|
|----------------------------------|
|------------------------------5---|
|-000------6530-6530-6530-6530---5-|

Verse 1
|--------------------------------------------------------|
|--------------------------------------------------------|
|----------------------------------------------------5---|
|-6530-6530-6530-6530-653010530--6530-6530-6530-6530---5-|
 3x

Verse 2
|----------------------------------------------------R-|
|----------------------------------------------------E-|
|----------------------------------------------------S-|
|-6530-6530-6530-6530-653010530--6530-6530-6530-6530-T-|

|-----------------------------------------------|
|-----------------------------------------------|
|-----------------------------------------------|
|-6530-6530-6530-6530-653010530--6530-6530-6530-|

Pre-chorus-4x

Chorus
|--------------------|
|--------------------|
|-------------2-3-5--|
|-0~-2-3-7-5~--------|
 2x

Verse 1-3x

Verse 2
|----------------------------------------------------R-|
|----------------------------------------------------E-|
|----------------------------------------------------S-|
|-6530-6530-6530-6530-653010530--6530-6530-6530-6530-T-|

|------------------------------------------------------|
|------------------------------------------------------|
|------------------------------------------------------|
|-6530-6530-6530-6530-653010530--6530-6530-6530--2-3-5-|

Prechorus-4x

Chorus-4x

Bridge
|---------------------------------------------------------|
|---------------------------------------------------------|
|---------------------------------------------------------|
|-222--------222------12/////------222---------222-----3~-|
 2x

Solo
|------------------------------------------|
|------------------------------------------|
|----------------------------------------5-|
|-02-67-23-x-x-x-x-0000000-02-67-23----0---|
 2x

|-----------------------------------------------------------------|
|-----------------------------------------------------------------|
|-----------------------------------------------------------------|
|-0~--6530-6530-6530-6530-653010530--6530-6530-6530---3-5-6-5-6-7-|

|---------------------|
|---------------------|
|---7---7-------------|
|-00--00--0~---12////-|

Chorus-4x

Outro
|-----------------|
|-----------------|
|-----------------|
|-0000000-0000000-|

-----------------------------------------------------------------------------
                                  Lyrics
-----------------------------------------------------------------------------

My declaration hurts,
Just want to stab it right now,
Congratulations you've found yourself,
Been preaching to many times to any hysterical mind,
So wont you fucking behave yourself,
It's all in there without despair,
So you've saved your soul?
It always depends who will deliver,
Have you ever known,
Such a beautiful mind that gives you shelter,

Chorus-I'm waiting for something to show,
       I might as well...
       Just drag me down so low,

I'm down the drain and got nothing to fear,
With a polluted mind,
I had my share of loosing,
Don't ever cross that line,
So you've saved your soul?
It always depends who will deliver,
Have you ever know,
Such a beautiful mind that gives you shelter

Break the record,
In a second,
Cherish your mental weapons,
Watch the progress,
From an aspect,
That's stabbing the drama inside,

Chorus 2-I'm waiting for something to show,
         I might as well...
         Just drag me down so low,
         I'm waiting for something to show,
         My punishment,
         For being down so low,

I can't believe how it use to be,
Selfish minds were abusing me,
Self pity and determined to crawl,
Manipulation of a merciful Soul,

Solo:Frenning

Chorus 2


            
            
Suggest correction
Creating personal tab
Creating personal tab
You can edit any tab online and save it as your Personal.

You can edit, replace or remove any tab part or add personal notes – all changes will be seen only by you.

Personal tabs can be accessed anytime from any device, even offline.
Learn more »
Give kudos to tab author, rate the tab!
1 2 3 4 5
comments
print report bad tab
guest
You may want to rate the tab now too:
select rating
Wanna post a correction for this tab? Suggest correction