Oops, an error
Loading. Please wait.

Bipolar Compliments Rhythm Guitar tab

22 views 1 this week
no commentswrite comment
1 2 3 4 5
3 more votes to show rating
add to favorites
×
Save as Personal and add changes to this tab that will be seen only by you. Learn more ›
×
You can save this tab as Personal to edit and correct it or add notes. All changes will be seen only by you. Learn more »
launch autoscroll
font size
0
reset
how to read this tab
guitar tuner
edit
Autoscroll
slow
fast
+/-
esc
set tempo
stop
Author
[Intro]

e|----------------------------|----------------------------------------------|
B|----------------------------|(X3)------------------------------------------|
G|----------------------------|----------------------------------------------|
D|------------------------0--0|----------------------------------------------|
A|2--2-2--2---3--3-3--3---0--0|-----2--2-2--2---3--3-3--3---2h3-2p0----------|
E|0--0-0--0---1--1-1--1-------|-----0--0-0--0---1--1-1--1--------------------|

e|----------------------------|----------------------------------------------|
B|----------------------------|(X3)------------------------------------------|
G|----------------------------|----------------------------------------------|
D|------------------------0--0|----------------------------------------------|
A|2--2-2--2---3--3-3--3---0--0|-----2--2-2--2-2--*10*------------------------|
E|0--0-0--0---1--1-1--1-------|-----0--0-0--0-0------------------------------|

e|---------------------------------------------------------------------------|
B|---------------------------------------------------------------------------|
G|---------------------------------------------------------------------------|
D|---------------------------------------------------------------------------|
A|----5-----4-----7-----3-----3--------5-----4-----7-----3-----3-------------|
E|0h3---0h2---0h5---0h1---0h1---1--0h3---0h2---0h5---0h1---0h1---------------|

e|------------------------------------------------------------------------|
B|------------------------------------------------------------------------|(X2)
G|------------------------------------------------------------------------|
D|------------------------------------PM----------0--0--0-----------------|
A|----5-----4-----7-----3-----3--3-3-3-3-3-3-3-3--0--0--0-----------------|
E|0h3---0h2---0h5---0h1---0h1----1-1-1-1-1-1-1-1--------------------------|


[Verse]

e|-------------------------------------------------------------------------------------------------------|
B|-------------------------------------------------------------------------------------------------------|(X2)
G|---PM------------------------PM-------------------------PM-------------------------PM------------------|
D|2--2-2--2--2--------------2--2-2--2--2---------------2--2-2--2--2---------------2--2-2--2--2-----------|
A|2--2-2--2--2--2h3p2-0h2p0-2--2-2--2--2--2h3p2-0h2p0--2--2-2--2--2--2h3p2-0h2p0--2--2-2--2--2--3--3--3--|
E|0--0-0--0--0--------------0--0-0--0--0---------------0--0-0--0--0-------- ------0--0-0--0--0--1--1--1--|

e|-------------------------------------------------------------------------------------------------------|
B|-------------------------------------------------------------------------------------------------------|
G|---PM------------------------PM-------------------------PM-------------------------PM------------------|
D|2--2-2--2--2--------------2--2-2--2--2---------------2--2-2--2--2---------------2--2-2--2--2-----------|
A|2--2-2--2--2--7h8p7-5h7p5-2--2-2--2--2--7h8p7-5h7p5--2--2-2--2--2--7h8p7-5h7p5--2--2-2--2--2--3--3--3--|
E|0--0-0--0--0--------------0--0-0--0--0---------------0--0-0--0--0-------- ------0--0-0--0--0--1--1--1--|

e|--------------------------------------------------------------------------------------------------------|
B|--------------------------------------------------------------------------------------------------------|
G|---PM------------------------PM-------------------------PM-------------------------PM-------------------|
D|2--2-2--2--2--------------2--2-2--2--2---------------2--2-2--2--2---------------2--2-2--2--2------------|
A|2--2-2--2--2--7h8p7-5h7p5-2--2-2--2--2--7h8p7-5h7p5--2--2-2--2--2--7h8p7-5h7p5--2--2-2--2--2--3--3--3--3|
E|0--0-0--0--0--------------0--0-0--0--0---------------0--0-0--0--0-------- ------0--0-0--0--0--1--1--1--1|


[Pre Chorus]

e|------------------------------------------------------|
B|------------------------------------------------------|
G|------------------------------------------------------|
D|2--2-2-2----------------------------------------------|
A|2--2-2-2--5--5-5-5--5--5-5--4--4-4-4--3--3-3-3--3--3-3|
E|0--0-0-0--3--3-3-3--3--3-3--2--2-2-2--1--1-1-1--1--1-1|

e|-----------------------------------------------------|
B|-----------------------------------------------------|(X2)
G|-----------------------------------------------------|
D|2--2-2-2---------------------------------------------|
A|2--2-2-2--5--5-5-5--5--5-5--4--4-4-4--3--3-3-3--3/5--|
E|0--0-0-0--3--3-3-3--3--3-3--2--2-2-2--1--1-1-1-------|


e|------------------------------------------------------|
B|------------------------------------------------------|
G|------------------------------------------------------|
D|2--2-2-2----------------------------------------------|
A|2--2-2-2--5--5-5-5--5--5-5--4--4-4-4--3--3-3-3--3--3-3|
E|0--0-0-0--3--3-3-3--3--3-3--2--2-2-2--1--1-1-1--1--1-1|

e|--------------------------------------------------------|
B|--------------------------------------------------------|
G|--------------------------------------------------------|
D|2--2-2-2------------------------------------------------|
A|2--2-2-2--5--5-5-5--5--5-5--4--4-4-4--3--3-3-3--2h3-2p0-|
E|0--0-0-0--3--3-3-3--3--3-3--2--2-2-2--1--1-1-1----------|


e|------------------------------------------------------|
B|------------------------------------------------------|
G|------------------------------------------------------|
D|2--2-2-2----------------------------------------------|
A|2--2-2-2--5--5-5-5--5--5-5--4--4-4-4--3--3-3-3--3--3-3|
E|0--0-0-0--3--3-3-3--3--3-3--2--2-2-2--1--1-1-1--1--1-1|

e|-----------------------------------------------------|
B|-----------------------------------------------------|
G|-----------------------------------------------------|
D|2--2-2-2---------------------------------------------|
A|2--2-2-2--5--5-5-5--5--5-5--4--4-4-4--3--3-3-3--3/5--|
E|0--0-0-0--3--3-3-3--3--3-3--2--2-2-2--1--1-1-1-------|


[Chorus]
                   (16 Notes youll hear it in the MP3)
e|-----------------------------------------------------------------------------------------------------|
B|-----------------------------------------------------------------------------------------------------|(X4)
G|-----------------------------------------------------------------------------------------------------|
D|----------------------------------------------2-2------------------------------------------------2-2-|
A|3-3-3-3-3-3-3-3---------2-2-2-2-2-2-2-2-------2-2--2-2-2-2-2-2-2-2---------0-0-0-0-0-0-0-0-------2-2-|
E|5-5-5-5-5-5-5-5-(X16)-0-5-5-5-5-5-5-5-5-(X12)-0-0--3-3-3-3-3-3-3-3-(X16)-0-2-2-2-2-2-2-2-2-(X12)-0-0-|

[Re Intro]
e|---------------------------------------------------------------------------|
B|---------------------------------------------------------------------------|
G|---------------------------------------------------------------------------|
D|---------------------------------------------------------------------------|
A|----5-----4-----7-----3-----3--------5-----4-----7-----3-----3-------------|
E|0h3---0h2---0h5---0h1---0h1---1--0h3---0h2---0h5---0h1---0h1---------------|

e|---------------------------------------------------------------------------|
B|---------------------------------------------------------------------------|(X4)
G|---------------------------------------------------------------------------|
D|---------------------------------------------------0--0--0-----------------|
A|----5-----4-----7-----3-----3-----3-3-3-3-3-3-3-3--0--0--0-----------------|
E|0h3---0h2---0h5---0h1---0h1----PM-1-1-1-1-1-1-1-1--------------------------|

[Verse 2]

e|-------------------------------------------------------------------------------------------------------|
B|-------------------------------------------------------------------------------------------------------|(X2)
G|---PM------------------------PM-------------------------PM-------------------------PM------------------|
D|2--2-2--2--2--------------2--2-2--2--2---------------2--2-2--2--2---------------2--2-2--2--2-----------|
A|2--2-2--2--2--2h3p2-0h2p0-2--2-2--2--2--2h3p2-0h2p0--2--2-2--2--2--2h3p2-0h2p0--2--2-2--2--2--3--3--3--|
E|0--0-0--0--0--------------0--0-0--0--0---------------0--0-0--0--0-------- ------0--0-0--0--0--1--1--1--|

e|-------------------------------------------------------------------------------------------------------|
B|-------------------------------------------------------------------------------------------------------|
G|---PM------------------------PM-------------------------PM-------------------------PM------------------|
D|2--2-2--2--2--------------2--2-2--2--2---------------2--2-2--2--2---------------2--2-2--2--2-----------|
A|2--2-2--2--2--7h8p7-5h7p5-2--2-2--2--2--7h8p7-5h7p5--2--2-2--2--2--7h8p7-5h7p5--2--2-2--2--2--3--3--3--|
E|0--0-0--0--0--------------0--0-0--0--0---------------0--0-0--0--0-------- ------0--0-0--0--0--1--1--1--|

e|--------------------------------------------------------------------------------------------------------|
B|--------------------------------------------------------------------------------------------------------|
G|---PM------------------------PM-------------------------PM-------------------------PM-------------------|
D|2--2-2--2--2--------------2--2-2--2--2---------------2--2-2--2--2---------------2--2-2--2--2------------|
A|2--2-2--2--2--7h8p7-5h7p5-2--2-2--2--2--7h8p7-5h7p5--2--2-2--2--2--7h8p7-5h7p5--2--2-2--2--2--3--3--3--3|
E|0--0-0--0--0--------------0--0-0--0--0---------------0--0-0--0--0-------- ------0--0-0--0--0--1--1--1--1|

[Pre Chorus 2]

e|------------------------------------------------------|
B|------------------------------------------------------|
G|------------------------------------------------------|
D|2--2-2-2----------------------------------------------|
A|2--2-2-2--5--5-5-5--5--5-5--4--4-4-4--3--3-3-3--3--3-3|
E|0--0-0-0--3--3-3-3--3--3-3--2--2-2-2--1--1-1-1--1--1-1|

e|-----------------------------------------------------|
B|-----------------------------------------------------|
G|-----------------------------------------------------|
D|2--2-2-2---------------------------------------------|
A|2--2-2-2--5--5-5-5--5--5-5--4--4-4-4--3--3-3-3--3/5--|
E|0--0-0-0--3--3-3-3--3--3-3--2--2-2-2--1--1-1-1-------|


e|------------------------------------------------------|
B|------------------------------------------------------|
G|------------------------------------------------------|
D|2--2-2-2----------------------------------------------|
A|2--2-2-2--5--5-5-5--5--5-5--4--4-4-4--3--3-3-3--3--3-3|
E|0--0-0-0--3--3-3-3--3--3-3--2--2-2-2--1--1-1-1--1--1-1|

e|--------------------------------------------------------|
B|--------------------------------------------------------|(X2)
G|--------------------------------------------------------|
D|2--2-2-2------------------------------------------------|
A|2--2-2-2--5--5-5-5--5--5-5--4--4-4-4--3--3-3-3--2h3-2p0-|
E|0--0-0-0--3--3-3-3--3--3-3--2--2-2-2--1--1-1-1----------|


[Chorus 2]
                   (16 Notes youll hear it in the MP3)
e|-----------------------------------------------------------------------------------------------------|
B|-----------------------------------------------------------------------------------------------------|(X3)
G|-----------------------------------------------------------------------------------------------------|
D|----------------------------------------------2-2------------------------------------------------2-2-|
A|3-3-3-3-3-3-3-3---------2-2-2-2-2-2-2-2-------2-2--2-2-2-2-2-2-2-2---------0-0-0-0-0-0-0-0-------2-2-|
E|5-5-5-5-5-5-5-5-(X16)-0-5-5-5-5-5-5-5-5-(X12)-0-0--3-3-3-3-3-3-3-3-(X16)-0-2-2-2-2-2-2-2-2-(X12)-0-0-|

e|------------------------------------------------------------------------------------------------------|
B|------------------------------------------------------------------------------------------------------|
G|------------------------------------------------------------------------------------------------------|
D|----------------------------------------------2-2-----------------------------------------------------|
A|3-3-3-3-3-3-3-3---------2-2-2-2-2-2-2-2-------2-2--2-2-2-2-2-2-2-2---------0-0-0-0-0-0-0-0-------3-3-3|
E|5-5-5-5-5-5-5-5-(X16)-0-5-5-5-5-5-5-5-5-(X12)-0-0--3-3-3-3-3-3-3-3-(X16)-0-2-2-2-2-2-2-2-2-(X12)-1-1-1|


[Breakdown]

e|------------------------------------------------------------------------------------|
B|------------------------------------------------------------------------------------|
G|----PM--------PM--------PM------PM--------PM--------PM------PM--------PM--------PM--|
D|2--2-2-2--2--2-2-2--2--2-2--2--2-2-2--2--2-2-2--2--2-2--5--5-5-5--5--5-5-5--5--5-5--|
A|2--2-2-2--2--2-2-2--2--2-2--2--2-2-2--2--2-2-2--2--2-2--3--3-3-3--3--3-3-3--3--3-3--|
E|0--0-0-0--0--0-0-0--0--0-0--0--0-0-0--0--0-0-0--0--0-0--5--5-5-5--5--5-5-5--5--5-5--|

e|-----------------------------|
B|-----------------------------|(X3)
G|----PM--------PM-------------|
D|7--7-7-7--7--7-7-7--4h5-4p0--|
A|5--5-5-5--5--5-5-5-----------|
E|7--7-7-7--7--7-7-7-----------|

e|------------------------------------------------------------------------------------|
B|------------------------------------------------------------------------------------|
G|----PM--------PM--------PM------PM--------PM--------PM--------------------------PM--|
D|2--2-2-2--2--2-2-2--2--2-2--2--2-2-2--2--2-2-2--2--2-2--5--x-5--x-5--x-5--x-5--5-5--|
A|2--2-2-2--2--2-2-2--2--2-2--2--2-2-2--2--2-2-2--2--2-2--3--x-3--x-3--x-3--x-3--3-3--|
E|0--0-0-0--0--0-0-0--0--0-0--0--0-0-0--0--0-0-0--0--0-0--5--x-5--x-5--x-5--x-5--5-5--|

e|--------------------------------------|
B|--------------------------------------|
G|----PM--------------------------------|
D|7--x-7--x-7--*4h5*-*4p0*-*2h4*-*2p0*--|
A|5--x-5--x-5---------------------------|
E|7--x-7--x-7---------------------------|

e|----------------------------------------------------------------------------------------------|
B|----------------------------------------------------------------------------------------------|
G|----------------------------------------------------------------------------------------------|
D|2---x-2---x-2---x-2---x-2--x-x--4---x-4---x-4---x-4---x-4--x-x--5---x-5---x-5---x-5---x-5--x-x|
A|2---x-2---x-2---x-2---x-2--x-x--2---x-2---x-2---x-2---x-2--x-x--3---x-3---x-3---x-3---x-3--x-x|
E|0---0-0---0-0---0-0---0-0--0-0--3---3-3---3-3---3-3---3-3--3-3--5---5-5---5-5---5-5---5-5--5-5|

e|----------------------------------|
B|----------------------------------|(X3) (1st time, no pitch harmonic, 2nd&3rd time, pitch harmonic)
G|----------------------------------|
D|9---x-9---x-7---x-7---------------|
A|7---x-7---x-5---x-5----*5h7*-*5p0*|
E|8---8-8---8-7---7-7---------------|

e|----------------------------------------------------------------------------------------------|
B|----------------------------------------------------------------------------------------------|
G|----------------------------------------------------------------------------------------------|
D|2---x-2---x-2---x-2---x-2--x-x--4---x-4---x-4---x-4---x-4--x-x--5---x-5---x-5---x-5---x-5--x-x|
A|2---x-2---x-2---x-2---x-2--x-x--2---x-2---x-2---x-2---x-2--x-x--3---x-3---x-3---x-3---x-3--x-x|
E|0---0-0---0-0---0-0---0-0--0-0--3---3-3---3-3---3-3---3-3--3-3--5---5-5---5-5---5-5---5-5--5-5|

e|--------------------------------------------------------------------------------------------|
B|--------------------------------------------------------------------------------------------| 
G|--------------------------------------------------------------------------------------------|
D|9---x-9---x-7---x-x---------PM----2---2-2---2-2----2-2---2-2----2-2---2-2---2---------------|
A|7---x-7---x-5---x-x---3---3---3---2---2-2---2-2----2-2---2-2----2-2---2-2---2---3---3--3-3--|
E|8---8-8---8-7---x-x---1---1---1---0---0-0---0-0----0-0---0-0----0-0---0-0---0---1---1--1-1--|


[Outro Solo]

e|---|------------------------------------------------------------------------------------------------|
B|---|------------------------------------------------------------------------------------------------|
G|---|------------------------------------------------------------------------------------------------|
D|---|------------------------------------------------------------------------------------------------|
A|---|------------------------------------------------------------------------------------------------|
E|0--|3p0-3p0-3p0-3p0-3p0-3p0-3p0-3p0-2p0-2p0-2p0-2p0-2p0-2p0-2p0-2p0-5p0-5p0-5p0-5p0-5p0-5p0-5p0-5p0-|

      (2nd time play 5p0-1p0 here-VVVV)
e|-------------------------------|--------------------------------------------|
B|-------------------------------|(X2)----------------------------------------|
G|-------------------------------|--------------------------------------------|
D|-------------------------------|---------------------------PM---------------|
A|-------------------------------|--------------------------3---3-------------|
E|1p0-1p0-1p0-1p0-1p0-1p0-1p0-1p0|--1p0-1p0-1p0-1p0-1p0-1p0-1---1-------------|

e|------------------------------------------------------------------------------------------------|
B|------------------------------------------------------------------------------------------------|
G|------------------------------------------------------------------------------------------------|
D|------------------------------------------------------------------------------------------------|
A|------------------------------------------------------------------------------------------------|
E|3p0-3p0-3p0-3p0-3p0-3p0-3p0-3p0-2p0-2p0-2p0-2p0-2p0-2p0-2p0-2p0-5p0-5p0-5p0-5p0-5p0-5p0-5p0-5p0-|

e|-----------------------------|
B|-----------------------------|
G|-----------------------------|
D|-----------------------PM----|
A|--------------------3---3---3|
E|1p0-1p0-1p0-1p0-1p0-1---1---1|

e|------------------------------------------------------------------------------------------------|
B|------------------------------------------------------------------------------------------------|
G|------------------------------------------------------------------------------------------------|
D|------------------------------------------------------------------------------------------------|
A|------------------------------------------------------------------------------------------------|
E|3p0-3p0-3p0-3p0-3p0-3p0-3p0-3p0-2p0-2p0-2p0-2p0-2p0-2p0-2p0-2p0-5p0-5p0-5p0-5p0-5p0-5p0-5p0-5p0-|

e|-----------------------------|
B|-----------------------------|
G|-----------------------PM----|
D|----------------2------------|
A|----------------2---3---3---3|
E|1p0-1p0-1p0-1p0-0---1---1---1|

e|---------------------------------------------------------------------------|
B|---------------------------------------------------------------------------|
G|-------PM------------------------------------------------------------------|
D|2---2-2-2-2--------PM---------PM---------PM-----------PM-------------------|
A|2---2-2-2-2--5---5-5-5-5--5---5-5--4---4-4-4-4--3---3-3-3-3--2h3-2p0-------|
E|0---0-0-0-0--3---3-3-3-3--3---3-3--2---2-2-2-2--1---1-1-1-1----------------|

e|---------------------------------------------------------------------------|
B|---------------------------------------------------------------------------|(X2)
G|-------PM------------------------------------------------------------------|
D|2---2-2-2-2--------PM---------PM---------PM-----------PM-------------------|
A|2---2-2-2-2--5---5-5-5-5--5---5-5--4---4-4-4-4--3---3-3-3-3--2p0-5p0-------|
E|0---0-0-0-0--3---3-3-3-3--3---3-3--2---2-2-2-2--1---1-1-1-1----------------|

e|---------------------------------------------------------------------------|
B|---------------------------------------------------------------------------|(X3)
G|-------PM------------------------------------------------------------------|
D|2---2-2-2-2--------PM---------PM---------PM-----------PM-------------------|
A|2---2-2-2-2--5---5-5-5-5--5---5-5--7---7-7-7-7--3---3-3-3-3--2h3-2p0-------|
E|0---0-0-0-0--3---3-3-3-3--3---3-3--5---5-5-5-5--1---1-1-1-1----------------|

e|---------------------------------------------------------------------------|
B|---------------------------------------------------------------------------|
G|-------PM------------------------------------------------------------------|
D|2---2-2-2-2--------PM---------PM---------PM------------PM------------------|
A|2---2-2-2-2--5---5-5-5-5--5---5-5--7---7-7-7-7--3---3--3--3--3-------------|
E|0---0-0-0-0--3---3-3-3-3--3---3-3--5---5-5-5-5--1---1--1--1--1-------------|

e|------------------------------------------------------------------------------------------------------|
B|------------------------------------------------------------------------------------------------------|
G|------------------------------------------------------------------------------------------------------|
D|2---x-2---x-2---x-2---x-2--x-x--5---x-5---x-5---x-5---x-5--x-x---9---x-9---x-9---x-9---x-9---x-x------|
A|2---x-2---x-2---x-2---x-2--x-x--3---x-3---x-3---x-3---x-3--x-x---7---x-7---x-7---x-7---x-7---x-x------|
E|0---0-0---0-0---0-0---0-0--0-0--5---5-5---5-5---5-5---5-5--5-5---8---8-8---8-8---8-8---8-8---8-8------|

e|-----------------------------|
B|-----------------------------|
G|-----------------------------|
D|7---x-7---x-7-------*5h7-5p0*|
A|5---x-5---x-5-----5h7--------|
E|7---7-7---7-7--5h7-----------|

e|------------------------------------------------------------------------------------------------------|
B|------------------------------------------------------------------------------------------------------|
G|------------------------------------------------------------------------------------------------------|
D|2---x-2---x-2---x-2---x-2--x-x--5---x-5---x-5---x-5---x-5--x-x---9---x-9---x-9---x-9---x-9---x-x------|
A|2---x-2---x-2---x-2---x-2--x-x--3---x-3---x-3---x-3---x-3--x-x---7---x-7---x-7---x-7---x-7---x-x------|
E|0---0-0---0-0---0-0---0-0--0-0--5---5-5---5-5---5-5---5-5--5-5---8---8-8---8-8---8-8---8-8---8-8------|

e|-----------------------------|
B|-----------------------------|
G|-----------------------------|
D|7---x-7---x-7---7/9---*9*----|
A|5---x-5---x-5----------------|
E|7---7-7---7-7----------------|

e|------------------------------------------------------------------------------------------------------|
B|------------------------------------------------------------------------------------------------------|
G|------------------------------------------------------------------------------------------------------|
D|2---x-2---x-2---x-2---x-2--x-x--5---x-5---x-5---x-5---x-5--x-x---9---x-9---x-9---x-9---x-9---x-x------|
A|2---x-2---x-2---x-2---x-2--x-x--3---x-3---x-3---x-3---x-3--x-x---7---x-7---x-7---x-7---x-7---x-x------|
E|0---0-0---0-0---0-0---0-0--0-0--5---5-5---5-5---5-5---5-5--5-5---8---8-8---8-8---8-8---8-8---8-8------|

e|------------------------------------------|
B|------------------------------------------|
G|--------------------(16th notes)----------|
D|7---x-7---x-7--7-7-7-7-9-9-9-9-5-5-5-5-4--|
A|5---x-5---x-5-----------------------------|
E|7---7-7---7-7-----------------------------|

e|------------------------------------------------------------------------------------------------------|
B|------------------------------------------------------------------------------------------------------|
G|------------------------------------------------------------------------------------------------------|
D|2---x-2---x-2---x-2---x-2--x-x--5---x-5---x-5---x-5---x-5--x-x---9---x--x---9--x--9--x---7--7--7--7---|
A|2---x-2---x-2---x-2---x-2--x-x--3---x-3---x-3---x-3---x-3--x-x---7---x--x---7--x--7--x---5--5--5--5---|
E|0---0-0---0-0---0-0---0-0--0-0--5---5-5---5-5---5-5---5-5--5-5---8---8--8---8--8--8--8---7--7--7--7---|

e|----------------------------|
B|----------------------------|
G|----------------------------|
D|-10--10--10--10--10---2-----|
A|--8---8---8---8---8---2-----|
E|-10--10--10--10--10---0-----|


[Outro Solo Davids Version]

e|---|------------------------------------------------------------------------------------------------|
B|---|------------------------------------------------------------------------------------------------|
G|---|------------------------------------------------------------------------------------------------|
D|---|------------------------------------------------------------------------------------------------|
A|---|------------------------------------------------------------------------------------------------|
E|0--|3p0-3p0-3p0-3p0-3p0-3p0-3p0-3p0-2p0-2p0-2p0-2p0-2p0-2p0-2p0-2p0-5p0-5p0-5p0-5p0-5p0-5p0-5p0-5p0-|

      (2nd time play 5p0-1p0 here-VVVV)
e|-------------------------------|--------------------------------------------|
B|-------------------------------|(X2)----------------------------------------|
G|-------------------------------|--------------------------------------------|
D|-------------------------------|---------------------------PM---------------|
A|-------------------------------|--------------------------3---3-------------|
E|1p0-1p0-1p0-1p0-1p0-1p0-1p0-1p0|--1p0-1p0-1p0-1p0-1p0-1p0-1---1-------------|

                       (8th notes)                 (X2)
e|------------------------------------------------------------------------------------------------------|
B|8-8-8-8-8-8-8-8(X16)-10-10-10-10-10-10-10-10(X16)-8-8-8-8-8-8-8-8(X16)-10-10-12-12-12-12-12-12-12-12--|
G|------------------------------------------------------------------------------------------------------|
D|------------------------------------------------------------------------------------------------------|
A|------------------------------------------------------------------------------------------------------|
E|------------------------------------------------------------------------------------------------------|

e|---------------------------------------------------------------------------|
B|---------------------------------------------------------------------------|
G|-------PM------------------------------------------------------------------|
D|2---2-2-2-2--------PM---------PM---------PM-----------PM-------------------|
A|2---2-2-2-2--5---5-5-5-5--5---5-5--4---4-4-4-4--3---3-3-3-3--2h3-2p0-------|
E|0---0-0-0-0--3---3-3-3-3--3---3-3--2---2-2-2-2--1---1-1-1-1----------------|

e|---------------------------------------------------------------------------|
B|---------------------------------------------------------------------------|(X2)
G|-------PM------------------------------------------------------------------|
D|2---2-2-2-2--------PM---------PM---------PM-----------PM-------------------|
A|2---2-2-2-2--5---5-5-5-5--5---5-5--4---4-4-4-4--3---3-3-3-3--2p0-5p0-------|
E|0---0-0-0-0--3---3-3-3-3--3---3-3--2---2-2-2-2--1---1-1-1-1----------------|

e|-------------------------------------------------------------------------------------------------|
B|5p0-7p0-5p0-8p0-5p0-7p0-8p0-10p0-5p0-7p0-5p0-8p0-4p0-5p0-7p0-8p0-5p0-7p0-5p0-8p0-5p0-7p0-8p0-10p0|
G|-------------------------------------------------------------------------------------------------|
D|-------------------------------------------------------------------------------------------------|
A|-------------------------------------------------------------------------------------------------|
E|-------------------------------------------------------------------------------------------------|
   
    (32nd notes, Really fast Picking Speed)
e|-------7-8-10-8-7-----------------------------|
B|7-8-10------------10-10-8-8-7-7-8-8-7--*9b9*--|
G|----------------------------------------------|
D|----------------------------------------------|
A|----------------------------------------------|
E|----------------------------------------------|

e|---------------------------------------------------------------------------|
B|---------------------------------------------------------------------------|(X3)
G|-------PM------------------------------------------------------------------|
D|2---2-2-2-2--------PM---------PM---------PM-----------PM-------------------|
A|2---2-2-2-2--5---5-5-5-5--5---5-5--7---7-7-7-7--3---3-3-3-3--2h3-2p0-------|
E|0---0-0-0-0--3---3-3-3-3--3---3-3--5---5-5-5-5--1---1-1-1-1----------------|

e|---------------------------------------------------------------------------|
B|---------------------------------------------------------------------------|
G|-------PM------------------------------------------------------------------|
D|2---2-2-2-2--------PM---------PM---------PM------------PM------------------|
A|2---2-2-2-2--5---5-5-5-5--5---5-5--7---7-7-7-7--3---3--3--3--3-------------|
E|0---0-0-0-0--3---3-3-3-3--3---3-3--5---5-5-5-5--1---1--1--1--1-------------|

e|------------------------------------------------------------------------------------------------------|
B|------------------------------------------------------------------------------------------------------|
G|------------------------------------------------------------------------------------------------------|
D|2---x-2---x-2---x-2---x-2--x-x--5---x-5---x-5---x-5---x-5--x-x---9---x-9---x-9---x-9---x-9---x-x------|
A|2---x-2---x-2---x-2---x-2--x-x--3---x-3---x-3---x-3---x-3--x-x---7---x-7---x-7---x-7---x-7---x-x------|
E|0---0-0---0-0---0-0---0-0--0-0--5---5-5---5-5---5-5---5-5--5-5---8---8-8---8-8---8-8---8-8---8-8------|

e|-----------------------------|
B|-----------------------------|
G|-----------------------------|
D|7---x-7---x-7-------*5h7-5p0*|
A|5---x-5---x-5-----5h7--------|
E|7---7-7---7-7--5h7-----------|

e|----------------------------------|
B|12----8--7----8h10----8--*7*-*7*--|
G|----------------------------------|
D|----------------------------------|
A|----------------------------------|
E|----------------------------------|

e|------------------------------------------------------------------------------------------------------|
B|------------------------------------------------------------------------------------------------------|
G|------------------------------------------------------------------------------------------------------|
D|2---x-2---x-2---x-2---x-2--x-x--5---x-5---x-5---x-5---x-5--x-x---9---x-9---x-9---x-9---x-9---x-x------|
A|2---x-2---x-2---x-2---x-2--x-x--3---x-3---x-3---x-3---x-3--x-x---7---x-7---x-7---x-7---x-7---x-x------|
E|0---0-0---0-0---0-0---0-0--0-0--5---5-5---5-5---5-5---5-5--5-5---8---8-8---8-8---8-8---8-8---8-8------|

e|------------------------------------------|
B|------------------------------------------|
G|--------------------(16th notes)----------|
D|7---x-7---x-7--7-7-7-7-9-9-9-9-5-5-5-5-4--|
A|5---x-5---x-5-----------------------------|
E|7---7-7---7-7-----------------------------|

e|------5h7p5-----------5h8p5-----------5h7p5-----------7h10p7-|
B|5-7-8-------8-7-5-7-8-------8-7-5-7-8-------8-7-5-7-8--------|
G|-------------------------------------------------------------|
D|-------------------------------------------------------------|
A|-------------------------------------------------------------|
E|-------------------------------------------------------------|

e|----------5h7p5-----------5h8p5-----------5h7p5-----------7h10p7-----------|
B|8-7-5-7-8-------8-7-5-7-8-------8-7-5-7-8-------8-7-5-7-8--------8-7-5-----|
G|---------------------------------------------------------------------------|
D|---------------------------------------------------------------------------|
A|---------------------------------------------------------------------------|
E|---------------------------------------------------------------------------|



************************************

| x  Dead note
| h  Hammer-on
| p  Pull-off
| b  Bend
| /  Slide up
| PM Palm Mute

************************************

            
            
Suggest correction
Creating personal tab
Creating personal tab
You can edit any tab online and save it as your Personal.

You can edit, replace or remove any tab part or add personal notes – all changes will be seen only by you.

Personal tabs can be accessed anytime from any device, even offline.
Learn more »
Give kudos to tab author, rate the tab!
1 2 3 4 5
comments
print report bad tab
guest
You may want to rate the tab now too:
select rating
Wanna post a correction for this tab? Suggest correction