Oops, an error
Loading. Please wait.

No Warning Rhythm Guitar tab

31 views 1 this week
no commentswrite comment
1 2 3 4 5
3 more votes to show rating
add to favorites
×
Save as Personal and add changes to this tab that will be seen only by you. Learn more ›
×
You can save this tab as Personal to edit and correct it or add notes. All changes will be seen only by you. Learn more »
launch autoscroll
font size
0
reset
how to read this tab
guitar tuner
edit
Autoscroll
slow
fast
+/-
esc
set tempo
stop
Author
Difficulty
[Intro]

e|---------------------------------------------------------------------------|  x4 
B|---------------------------------------------------------------------------|
G|---------------------------------------------------------------------------|
D|2--2----2--2---------------------------------------------------------------|
A|2--2----2--2---------------------------------------------------------------|
E|0--0----0--0---------------------------------------------------------------|

                                   x3
e||------------------------------------||-----------------------------------------|
B||------------------------------------||-----------------------------------------|
G||------------------------------------||-----------------------------------------|
D||-----------9/10------------9/10-9--7||----------------9/10------------9/10-9---|
A||-------7/8-7/8---------7/8-7/8--7--5||------------7/8-7/8---------7/8-7/8--7---|
E||0-0-0--5/6-------0-0-0-5/6----------||-----0-0-0--5/6-------0-0-0-5/6----------|


[Verse]

e|---------------------------------------------------------------------------|
B|---------------------------------------------------------------------------|
G|---------------------------------------------------------------------------|
D|---------------------------------------------------------------------------|
A|-----7------8----7---------5-7-8-7-5-7-----7------8----7---------5-7-8-7-5-|
E|0-0-0--0-0-0--0-0--0-0-0-0------------0-0-0--0-0-0--0-0--0-0-0-0-----------|

e|-----------------------------------------------------------------------------|
B|-----------------------------------------------------------------------------| x2
G|-----------------------------------------------------------------------------|
D|-------7------8----7---------5-7-8-7-5-7-----7------8----7-----8-7-5---------|
A|---------------------------------------------------------------------8-7-5-7-|
E|5-5-5-5--5-5-5--5-5--5-5-5-5------------5-5-5--5-5-5--5-5--5-5---------------|


[Pre Chorus]
                                                          x2             
e||--------------------------|-----------------------------||--------------------|
B||--------------------------|-----------------------------||--------------------|
G||--------------------------|-----------------------------||--------------------|
D||2-2-----------------------|2-2--2-----------------------||----2-2--2----------|
A||2-2---3-3---7---7--7--7--7|2-2--2---3-3---7---7--7--7--7||----2-2--2---3-3---7|
E||0-0---1-1---5---5--5--5--5|0-0--0---1-1---5---5--5--5--5||----0-0--0---1-1---5|


[Chorus]

e|--------------------------------------------------------------------------------------------|
B|--------------------------------------------------------------------------------------------|
G|--------------------------------------------------------------------------------------------|
D|2--2-2-2------------------------0--0-0-------2--2-2-2------------------------0-------2h3h2--|
A|2--2-2-2---3--3-3-3---7--7-7-7--0--0-0-2-3-5-2--2-2-2---3--3-3-3---7--7-7-7--0-2-3-5--------|
E|0--0-0-0---1--1-1-1---5--5-5-5---------------0--0-0-0---1--1-1-1---5--5-5-5-----------------|

e|---------------------------------------------------------------------------------------------|
B|---------------------------------------------------------------------------------------------|
G|---------------------------------------------------------------------------------------------|
D|2--2-2-2------------------------0--0-0-------2--2-2-2------------------------0-------2h3h-2h0|
A|2--2-2-2---3--3-3-3---7--7-7-7--0--0-0-2-3-5-2--2-2-2---3--3-3-3---7--7-7-7--0-2-3-5---------|
E|0--0-0-0---1--1-1-1---5--5-5-5---------------0--0-0-0---1--1-1-1---5--5-5-5------------------|


[Intro 2]

                                    x2
e||------------------------------------||-----------------------------------------|
B||------------------------------------||-----------------------------------------|
G||------------------------------------||-----------------------------------------|
D||-----------9/10------------9/10-9--7||----------------9/10------------9/10-9---|
A||-------7/8-7/8---------7/8-7/8--7--5||------------7/8-7/8---------7/8-7/8--7---|
E||0-0-0--5/6-------0-0-0-5/6----------||-----0-0-0--5/6-------0-0-0-5/6----------|

[Verse2]

e|---------------------------------------------------------------------------|
B|---------------------------------------------------------------------------|
G|---------------------------------------------------------------------------|
D|---------------------------------------------------------------------------|
A|-----7------8----7---------5-7-8-7-5-7-----7------8----7---------5-7-8-7-5-|
E|0-0-0--0-0-0--0-0--0-0-0-0------------0-0-0--0-0-0--0-0--0-0-0-0-----------|

e|-----------------------------------------------------------------------------|
B|-----------------------------------------------------------------------------| x4
G|-----------------------------------------------------------------------------|
D|-------7------8----7---------5-7-8-7-5-7-----7------8----7-----8-7-5---------|
A|---------------------------------------------------------------------8-7-5-7-|
E|5-5-5-5--5-5-5--5-5--5-5-5-5------------5-5-5--5-5-5--5-5--5-5---------------|


[Pre Chorus 2]

                                                          x2             
e||--------------------------|-----------------------------||--------------------|
B||--------------------------|-----------------------------||--------------------|
G||--------------------------|-----------------------------||--------------------|
D||2-2-----------------------|2-2--2-----------------------||----2-2--2----------|
A||2-2---3-3---7---7--7--7--7|2-2--2---3-3---7---7--7--7--7||----2-2--2---3-3---7|
E||0-0---1-1---5---5--5--5--5|0-0--0---1-1---5---5--5--5--5||----0-0--0---1-1---5|


[Chorus 2]

e|--------------------------------------------------------------------------------------------|
B|--------------------------------------------------------------------------------------------|
G|--------------------------------------------------------------------------------------------|
D|2--2-2-2------------------------0--0-0-------2--2-2-2------------------------0-------2h3h2--|
A|2--2-2-2---3--3-3-3---7--7-7-7--0--0-0-2-3-5-2--2-2-2---3--3-3-3---7--7-7-7--0-2-3-5--------|
E|0--0-0-0---1--1-1-1---5--5-5-5---------------0--0-0-0---1--1-1-1---5--5-5-5-----------------|

e|---------------------------------------------------------------------------------------------|
B|---------------------------------------------------------------------------------------------|
G|---------------------------------------------------------------------------------------------|
D|2--2-2-2------------------------0--0-0-------2--2-2-2------------------------0-------2h3h-2h0|
A|2--2-2-2---3--3-3-3---7--7-7-7--0--0-0-2-3-5-2--2-2-2---3--3-3-3---7--7-7-7--0-2-3-5---------|
E|0--0-0-0---1--1-1-1---5--5-5-5---------------0--0-0-0---1--1-1-1---5--5-5-5------------------|


[Breakdown]

e|---------------------------------------------------------------------------|
B|---------------------------------------------------------------------------|
G|---------------------------------------------------------------------------|
D|2-------2--2-2------2--2-2-----2--2---2---2-----------0--0-0--2------------|
A|2-------2--2-2------2--2-2-----2--2---2---2---3---3---0--0-0--2------------|
E|0-------0--0-0------0--0-0-----0--0---0---0---1---1-----------0------------|

e|-----------------------------------------------------------------------------------|
B|-----------------------------------------------------------------------------------|
G|-----------------------------------------------------------------------------------|
D|--------------------------------------2-------------------------------------------2|
A|---------------------------------3--3-2--------------------------------------3--3-2|
E|0--0--0-0-0--0--0-0-0--0--0-0-0--1--1-0-0--0-0-0--0--0-0-0--0--0-0-0--0-0-0--1--1-0|

e|-----------------------------------------------------------------------------------------------|
B|-----------------------------------------------------------------------------------------------|
G|-----------------------------------------------------------------------------------------------|
D|----------------------------------------------2-----------------------------------------------2|
A|----------------------------------------3--3--2-----------------------------------------3--3--2|
E|0--0-0-0--0--0-0-0--0--0-0-0-0-0-0-0-0--1--1--0--0--0-0-0--0--0-0-0--0--3-3-3-3-5-5-5-5-1--1--0|


e|---------------------------------------------------------------------------------------|
B|---------------------------------------------------------------------------------------|
G|---------------------------------------------------------------------------------------|
D|------------------------------------------2-------------------------------------------2|
A|-------------------------------------3--3-2--------------------------------------3--3-2|
E|0--0-0-0--0--0-0-0--0--0-0-0--0-0-0--1--1-0-0--0-0-0--0--0-0-0--0--0-0-0--0-0-0--1--1-0|
 
e|------------------------------------------------------------------------------------------|
B|------------------------------------------------------------------------------------------|
G|------------------------------------------------------------------------------------------|
D|----------------------------------------------2------------------------------------------2|
A|----------------------------------------3--3--2---------------------------------3--3--3--2|
E|0--0-0-0--0--0-0-0--0--0-0-0-0-0-0-0-0--1--1--0--0--0-0-0--0--0--0--0--3--5--3--1--1--1--0|

e|-----------------------------------------------------------------------------------------|
B|-----------------------------------------------------------------------------------------|
G|-----------------------------------------------------------------------------------------|
D|2-2---2-2---2---2---3---3--2--2-2---2-2---2---2---3---3--2--2-2---2-2---2---2---3---3--2-|
A|2-2---2-2---2---2---3---3--2--2-2---2-2---2---2---3---3--2--2-2---2-2---2---2---3---3--2-|
E|0-0---0-0---0---0---1---1--0--0-0---0-0---0---0---1---1--0--0-0---0-0---0---0---1---1--0-|

e|-----------------------------------------------------------------------------------------|
B|-----------------------------------------------------------------------------------------|
G|-----------------------------------------------------------------------------------------|
D|2-2---2-2---0---0---3---3--2--2-2---2-2---2---2---3---3--2--2-2---2-2---2---2---3---5--2-|
A|2-2---2-2---0---0---3---3--2--2-2---2-2---2---2---3---3--2--2-2---2-2---2---2---3---5--2-|
E|0-0---0-0-----------1---1--0--0-0---0-0---0---0---1---1--0--0-0---0-0---0---0---1---3--0-|

e|---------------------------------------------------------|
B|---------------------------------------------------------|
G|---------------------------------------------------------|
D|2-2---2-2---2---2---3---3--2--2-2---2-2---0---0---3---5--|
A|2-2---2-2---2---2---3---3--2--2-2---2-2---0---0---3---5--|
E|0-0---0-0---0---0---1---1--0--0-0---0-0-----------1---3--|


[Solo rhythm] 

(Before solo enters)

e|-------------------------------------------------------------|
B|-------------------------------------------------------------|
G|-------------------------------------------------------------|
D|2--2---2------2-----2--2------2----2--2------2----2--2------2|
A|2--2---2-3--3-2-----2--2-3--3-2----2--2-3--3-2----2--2-3--3-2|
E|0--0---0-1--1-0-----0--0-1--1-0----0--0-1--1-0----0--0-1--1-0|

(During solo)

e|---------------------------------------------------------------------------|
B|---------------------------------------------------------------------------|
G|---------------------------------------------------------------------------|
D|---------------------------------------------------------------------------|
A|-----7------8----7---------5-7-8-7-5-7-----7------8----7---------5-7-8-7-5-|
E|0-0-0--0-0-0--0-0--0-0-0-0------------0-0-0--0-0-0--0-0--0-0-0-0-----------|

e|---------------------------------------------------------------------------|
B|---------------------------------------------------------------------------| x2
G|---------------------------------------------------------------------------|
D|---------------------------------------------------------------------------|
A|--------7------7--7-------7------7--7-------5------5--5------9------9--9---|
E|5--5-5-5--5-5-5--5---5-5-5--5-5-5--5---3-3-3--3-3-3--3--7-7-7--7-7-7--7----|

e|---------------------------------------------------------------------------|
B|---------------------------------------------------------------------------|
G|---------------------------------------------------------------------------|
D|---------------------------------------------------------------------------|
A|-----7------8----7---------5-7-8-7-5-7-----7------8----7---------5-7-8-7-5-|
E|0-0-0--0-0-0--0-0--0-0-0-0------------0-0-0--0-0-0--0-0--0-0-0-0-----------|

e|-----------------------------------------------------------------------------|
B|-----------------------------------------------------------------------------| x2
G|-----------------------------------------------------------------------------|
D|-------7------8----7---------5-7-8-7-5-7-----7------8----7-----8-7-5---------|
A|---------------------------------------------------------------------8-7-5-7-|
E|5-5-5-5--5-5-5--5-5--5-5-5-5------------5-5-5--5-5-5--5-5--5-5---------------|

e|--------------------------|-----------------------------|
B|--------------------------|-----------------------------| x4
G|--------------------------|-----------------------------|
D|2-2-----------------------|2-2--2---------0---0--0--0--0|
A|2-2---3-3---7---7--7--7--7|2-2--2---3-3---0---0--0--0--0|
E|0-0---1-1---5---5--5--5--5|0-0--0---1-1-----------------|

e|-----------------------------------------------------------------------------------------------------------|
B|-----------------------------------------------------------------------------------------------------------|
G|-----------------------------------------------------------------------------------------------------------|
D|2--2-2-2--------------------------------0--0-0--0--0-2--2-2--2--2-------------------------------0--0-0-----|
A|2--2-2-2---3--3-3--3--3---7--7-7--7--7--0--0-0--0--0-2--2-2--2--2---3--3-3--3--3---7--7-7--7--7-0--0-0-2-3-5
E|0--0-0-0---1--1-1--1--1---5--5-5--5--5---------------0--0-0--0--0---1--1-1--1--1---5--5-5--5--5------------|


e|----------------------------------------------------------------------------------------------------|
B|----------------------------------------------------------------------------------------------------|
G|----------------------------------------------------------------------------------------------------|
D|2--2-2--2--2--------------------------------0--0-0--0--0-2--2-2--2--2-------------------------------|
A|2--2-2--2--2---3--3-3--3--3---7--7-7--7--7--0--0-0--0--0-2--2-2--2--2---3--3-3--3--3---7--7-7--7--7-|
E|0--0-0--0--0---1--1-1--1--1---5--5-5--5--5---------------0--0-0--0--0---1--1-1--1--1---5--5-5--5--5-|

e|------------|
B|------------| x3
G|------------|
D|0--0-0--0--0|
A|0--0-0--0--0|
E|------------|


[Solo rhythm Davids Version] 

(Before solo enters)

e|-------------------------------------------------------------|
B|-------------------------------------------------------------|
G|-------------------------------------------------------------|
D|2--2---2------2-----2--2------2----2--2------2----2--2------2|
A|2--2---2-3--3-2-----2--2-3--3-2----2--2-3--3-2----2--2-3--3-2|
E|0--0---0-1--1-0-----0--0-1--1-0----0--0-1--1-0----0--0-1--1-0|

(During solo)

e|---------------------------------------------------------------------------|
B|---------------------------------------------------------------------------|
G|---------------------------------------------------------------------------|
D|---------------------------------------------------------------------------|
A|-----7------8----7---------5-7-8-7-5-7-----7------8----7---------5-7-8-7-5-|
E|0-0-0--0-0-0--0-0--0-0-0-0------------0-0-0--0-0-0--0-0--0-0-0-0-----------|

e|---------------------------------------------------------------------------|
B|---------------------------------------------------------------------------| x2
G|---------------------------------------------------------------------------|
D|---------------------------------------------------------------------------|
A|--------7------7--7-------7------7--7-------5------5--5------9------9--9---|
E|5--5-5-5--5-5-5--5---5-5-5--5-5-5--5---3-3-3--3-3-3--3--7-7-7--7-7-7--7----|

e|---------------------------------------------------------------------------|
B|---------------------------------------------------------------------------|
G|---------------------------------------------------------------------------|
D|---------------------------------------------------------------------------|
A|-----7------8----7---------5-7-8-7-5-7-----7------8----7---------5-7-8-7-5-|
E|0-0-0--0-0-0--0-0--0-0-0-0------------0-0-0--0-0-0--0-0--0-0-0-0-----------|

e|-----------------------------[Sixteenth notes]-------------------------------------------------------|
B|13-13-15-15-12-12-13-13-10-10-12-12-8-8-10-10--10-10-12-12-8-8-10-10-7-7-8-8-5-5-7-7--7-7-8-8-5-5-7-7|
G|-----------------------------------------------------------------------------------------------------|
D|-----------------------------------------------------------------------------------------------------|
A|-----------------------------------------------------------------------------------------------------|
E|-----------------------------------------------------------------------------------------------------|

e|---------------|--------------|
B|3-3-5-5-7-7-5-5|--------------|
G|---------------|--------------|
D|---------------|-8-7-5--------|
A|---------------|-------8-7-5-7|
E|---------------|--------------|

e|---------------------------------------------------------------------------|
B|---------------------------------------------------------------------------|
G|---------------------------------------------------------------------------|
D|---------------------------------------------------------------------------|
A|-----7------8----7---------5-7-8-7-5-7-----7------8----7---------5-7-8-7-5-|
E|0-0-0--0-0-0--0-0--0-0-0-0------------0-0-0--0-0-0--0-0--0-0-0-0-----------|


e|-------------------------------------------[Sixteenth notes]-----------------------------------------------|
B|-----------------------------------------------------------------------------------------------------------|
G|9-9-9-9-11-11-11-11-12-12-12-12-9-9-9-9-12/14-14-14-14-12-12-12-12-11-11-11-11-9-9-9-9-16-16-16-16-16-16-16|
D|-----------------------------------------------------------------------------------------------------------|
A|-----------------------------------------------------------------------------------------------------------|
E|-----------------------------------------------------------------------------------------------------------|

e|-------------------------------------------|
B|16-16-16-16-16-14-14-14-14-14--------------|
G|-------------------------------------------|
D|------------------------------8-7-5--------|
A|------------------------------------8-7-5-7|
E|-------------------------------------------|

e|--------------------------|-----------------------------|
B|--------------------------|-----------------------------| x3
G|--------------------------|-----------------------------|
D|2-2-----------------------|2-2--2---------0---0--0--0--0|
A|2-2---3-3---7---7--7--7--7|2-2--2---3-3---0---0--0--0--0|
E|0-0---1-1---5---5--5--5--5|0-0--0---1-1-----------------|

e|17p10h12-17p10h12-17p10h12-15p10h12-17p10h12-17p10h12-17p10h12-15p10p12-17p10h12-17p10h12-17p10h12-15p10h12|
B|-----------------------------------------------------------------------------------------------------------|
G|-----------------------------------------------------------------------------------------------------------|
D|-----------------------------------------[Tapping]---------------------------------------------------------|
A|-----------------------------------------------------------------------------------------------------------|
E|-----------------------------------------------------------------------------------------------------------|

e|17p10h12-18p10h12-17p10h12-15p10h12-|
B|------------------------------------|
G|------------------------------------|
D|------------------------------------|
A|------------------------[Tapping]---|
E|------------------------------------|

e|----------------------------------------------------------------------------------------------|
B|----------------------------------------------------------------------------------------------|
G|------------------------------------------------------12---14--16--17---16--14--19----17--17--|
D|2--2-2-2--------------------------------0--0-0--0--0------------------------------------------|
A|2--2-2-2---3--3-3--3--3---7--7-7--7--7--0--0-0--0--0------------------------------------------|
E|0--0-0-0---1--1-1--1--1---5--5-5--5--5--------------------------------------------------------|

e|----------------------------------------------------------------------------------------------------|
B|----------------------------------------------------------------------------------------------------|
G|----------------------------------------------------------------------------------------------------|
D|2--2-2--2--2--------------------------------0--0-0--0--0-2--2-2--2--2-------------------------------|
A|2--2-2--2--2---3--3-3--3--3---7--7-7--7--7--0--0-0--0--0-2--2-2--2--2---3--3-3--3--3---7--7-7--7--7-|
E|0--0-0--0--0---1--1-1--1--1---5--5-5--5--5---------------0--0-0--0--0---1--1-1--1--1---5--5-5--5--5-|

e|------------|
B|------------| x3
G|------------|
D|0--0-0--0--0|
A|0--0-0--0--0|
E|------------|

[Outro]

e|------------------------------------------------------------------------------------|
B|------------------------------------------------------------------------------------|
G|------------------------------------------------------------------------------------|
D|2---2------2----------------------------2------2----------------------------2------2|
A|2---2-3--3-2----------------------------2-3--3-2----------------------------2-3--3-2|
E|0---0-1--1-0--x--x--x-x-x--x--x-x-x--x--0-1--1-0--x-x-x--x--x-x-x--x-x-x-x--0-1--1-0|

e|--------------------------------|
B|--------------------------------|
G|--------------------------------|
D|------------------------2------2|
A|------------------------2-3--3-2|
E|x-x-x--x--x-x-x--x-x-x--0-1--1-0|



************************************************************************

| x  Muted pinch harmonics on top of the 3rd fret in between fret 3 & 4
| h  Hammer-on
| /  Slide up

************************************************************************

            
            
Suggest correction
Creating personal tab
Creating personal tab
You can edit any tab online and save it as your Personal.

You can edit, replace or remove any tab part or add personal notes – all changes will be seen only by you.

Personal tabs can be accessed anytime from any device, even offline.
Learn more »
Give kudos to tab author, rate the tab!
1 2 3 4 5
comments
print report bad tab
guest
You may want to rate the tab now too:
select rating
Wanna post a correction for this tab? Suggest correction