Oops, an error
Loading. Please wait.

Tell Me Why Rhythm Guitar tab

52 views 1 this week
no commentswrite comment
1 2 3 4 5
3 more votes to show rating
add to favorites
×
Save as Personal and add changes to this tab that will be seen only by you. Learn more ›
×
You can save this tab as Personal to edit and correct it or add notes. All changes will be seen only by you. Learn more »
launch autoscroll
font size
0
reset
how to read this tab
guitar tuner
edit
Autoscroll
slow
fast
+/-
esc
set tempo
stop
[Intro]

e|---------------------------------------------------------------------------|X2
B|---------------------------------------------------------------------------|
G|---------------------------------------------------------------------------|
D|0-0-0--------0-0-0-------7-7-7--x--7-7-7 -x---101010-x-8--8--7-------------|
A|0-0-0--------0-0-0-------5-5-5--x--5-5-5--x---8-8-8--x-7--7--7-------------|
D|0-0-0--------0-0-0-------5-5-5--x--5-5-5--x---8-8-8--x-7--7--7-------------|

e|--------------------------------------------------------------------------------------------|
B|--------------------------------------------------------------------------------------------|     
G|--------------------------------------------------------------------------------------------|          
D|0-0-0----------------------0-0-0-------------------------7-7-7-x-7-7-7-x--10-10-10-x-8--8--7|           
A|0-0-0-----------8h10h8-----0-0-0------------10h12h10-----5-5-5-x-5-5-5-x--8--8--8--x-7--7--7|
D|0-0-0---8-10-12--------12--0-0-0---10-12-14----------14--5-5-5-x-5-5-5-x--8--8--8--x-7--7--7|

e|-----------------------------------------------------------------------------| 
B|-----------------------------------------------------------------------------|    
G|-----------------------------------------------------------------------------|         
D|0-0-0----------------------0-0-0-------------------------7-7-7-x-7-7-7-x--10-|           
A|0-0-0-----------8h10h8-----0-0-0------------10h12h10-----5-5-5-x-5-5-5-x--8--|
D|0-0-0---8-10-12--------12--0-0-0---10-12-14----------14--5-5-5-x-5-5-5-x--8--|


[Verse 1]

e|---------------------------------------------------------------------------|
B|---------------------------------------------------------------------------|
G|---------------------------------------------------------------------------|
D|0----------2----------7---------3------------------------------------------|
A|0----------2----------5---------1------------------------------------------|
D|0----------2----------5---------1------------------------------------------|

e|---------------------------------------------------------------------------|X3 
B|---------------------------------------------------------------------------|
G|---------------------------------------------------------------------------|
D|0----------2----------7---------3----1--1--3-------------------------------|
A|0----------2----------5---------1----1--1--3-------------------------------|
D|0----------2----------5---------1----1--1--3-------------------------------|


[Chorus 1]

e|----------------------------------------------------------------------------------| X2 
B|----------------------------------------------------------------------------------| 
G|----------------------------------------------------------------------------------|
D|0-0-7--0-0-7--0-0-8-7-5-7---5----8---7----0-0-7--0-0-7--0-0-8-7-5-7----5---10---7-|
A|0-0-7--0-0-7--0-0-8-7-5-7---5----8---7----0-0-7--0-0-7--0-0-8-7-5-7----5---8----7-|
D|0-0-7--0-0-7--0-0-8-7-5-7---5----8---7----0-0-7--0-0-7--0-0-8-7-5-7----5---8----7-|


[Verse 2]

e|---------------------------------------------------------------------------|
B|---------------------------------------------------------------------------|
G|---------------------------------------------------------------------------|
D|0----------2----------7---------3------------------------------------------|
A|0----------2----------5---------1------------------------------------------|
D|0----------2----------5---------1------------------------------------------|

e|---------------------------------------------------------------------------| X2
B|---------------------------------------------------------------------------|
G|---------------------------------------------------------------------------|
D|0----------2----------7---------3----1--1--3-------------------------------|
A|0----------2----------5---------1----1--1--3-------------------------------|
D|0----------2----------5---------1----1--1--3-------------------------------|


[Chorus 2]

e|----------------------------------------------------------------------------------| X2 
B|----------------------------------------------------------------------------------|    
G|----------------------------------------------------------------------------------|
D|0-0-7--0-0-7--0-0-8-7-5-7---5----8---7----0-0-7--0-0-7--0-0-8-7-5-7----5---10---7-|
A|0-0-7--0-0-7--0-0-8-7-5-7---5----8---7----0-0-7--0-0-7--0-0-8-7-5-7----5---8----7-|
D|0-0-7--0-0-7--0-0-8-7-5-7---5----8---7----0-0-7--0-0-7--0-0-8-7-5-7----5---8----7-|


[Breakdown]

e|---------------------------------------------------------------------------|X2  (Staccato,Held for a short 
B|---------------------------------------------------------------------------|          period of time)
G|---------------------------------------------------------------------------|
D|0-----0------8-----5-----7-----0-----0------8-----5-----7------------------|
A|0-----0------8-----5-----7-----0-----0------8-----5-----7------------------|
D|0-----0------8-----5-----7-----0-----0------8-----5-----7------------------|

e|---------------------------------------------------------------------------|X2  (hold the chords)
B|---------------------------------------------------------------------------|
G|---------------------------------------------------------------------------|
D|0-----0------8-----5-----7-----0-----0------8-----5-----7------------------|
A|0-----0------8-----5-----7-----0-----0------8-----5-----7------------------|
D|0-----0------8-----5-----7-----0-----0------8-----5-----7------------------|


[Breakdown harmonies]

e|-----------------------------------------------------------------------------------------------------------|
B|-----------------------------------------------------------------------------------------------------------|
G|-----------------------------------------------------------------------------------------------------------|
D|0--------------------------0-----------------------------8--------------------------5------------7---------|
A|0---8-8-10-10-12-12-7-7-8--0---8-8-10-10-12-12-13-13-12--8---8-8-10-10-12-12-7-7-8--5-12h8-10h8--7--8h7-9h7|
D|0--------------------------0-----------------------------8--------------------------5------------7---------|

e|-------------------------------------------------------------------------------------------| 
B|-------------------------------------------------------------------------------------------|
G|-------------------------------------------------------------------------------------------|
D|0--------------------------0-----------------------------8--------------------------5---7--|
A|0---8-8-10-10-12-12-7-7-8--0---8-8-10-10-12-12-13-13-12--8---8-8-10-10-12-12-7-7-8--5---7--|
D|0--------------------------0-----------------------------8--------------------------5---7--|


[Solo rhythm studio version]

e|------------------------------------------------------------------------------------|
B|------------------------------------------------------------------------------------|
G|------------------------------------------------------------------------------------|
D|10---------7----------0---------5-------10----7--8---0-0-0---------0-0-0------------|
A|8----------5----------0---------3-------8-----5--7---0-0-0------3--0-0-0------------|
D|8----------5----------0---------3-------8-----5--7---0-0-0--3-5----0-0-0--5-7-8-7---|

e|------------------------------------------------------------------------------------|
B|------------------------------------------------------------------------------------|
G|------------------------------------------------------------------------------------|
D|10---------7----------0---------5-------10----7--8---0-0-0---------0-0-0------------|
A|8----------5----------0---------3-------8-----5--7---0-0-0------3--0-0-0------------|
D|8----------5----------0---------3-------8-----5--7---0-0-0--3-5----0-0-0--7-8-7-5---|


[Davids version]

e|-------------------------------------------------------------------------| N =  strum 14 times
B|-----------------------------------------------------6N-6h-8h-10N-10-----| on fret number (8th notes)
G|-------------------------------------------------------------------------|  
D|10---------7----------0---------5-------10----7--8-----------------------|
A|8----------5----------0---------3-------8-----5--7-----------------------|
D|8----------5----------0---------3-------8-----5--7-----------------------|

e|----------------------------------------------------------------------------------------------------------|
B|18--17---15--13-11/17--15-13h15h13\11-13-11-10-11-10-8--6h8h10-8h10h11-10h11h13-11h13h15-13h15h17-13h15h17|
G|----------------------------------------------------------------------------------------------------------|
D|----------------------------------------------------------------------------------------------------------|
A|----------------------------------------------------------------------------------------------------------|
D|----------------------------------------------------------------------------------------------------------|

e|---------------------------------------------------------------------------|
B|15h17h18-17h18h20-18h20h22-23-22-20h22h20-18--18---------------------------|
G|---------------------------------------------------------------------------|
D|---------------------------------------------------------------------------|
A|---------------------------------------------------------------------------|
D|---------------------------------------------------------------------------|


[Final chorus]

(under solo)

e|----------------------------------------------------------------------------------| 
B|----------------------------------------------------------------------------------|   X6     
G|----------------------------------------------------------------------------------|
D|0-0-7--0-0-7--0-0-8-7-5-7---5----8---7----0-0-7--0-0-7--0-0-8-7-5-7----5---10---7-|
A|0-0-7--0-0-7--0-0-8-7-5-7---5----8---7----0-0-7--0-0-7--0-0-8-7-5-7----5---8----7-|
D|0-0-7--0-0-7--0-0-8-7-5-7---5----8---7----0-0-7--0-0-7--0-0-8-7-5-7----5---8----7-|



************************************
| x   Dead note
| h   Hammer-on
| p   Pull-off
| \   Slide down
| TR  Trill
| N   Tremolo
************************************

            
            
Suggest correction
Creating personal tab
Creating personal tab
You can edit any tab online and save it as your Personal.

You can edit, replace or remove any tab part or add personal notes – all changes will be seen only by you.

Personal tabs can be accessed anytime from any device, even offline.
Learn more »
Give kudos to tab author, rate the tab!
1 2 3 4 5
comments
print report bad tab
guest
You may want to rate the tab now too:
select rating
Wanna post a correction for this tab? Suggest correction