Oops, an error
Loading. Please wait.

Born In Babylon bass

by Soja
328 views 1 this week
no commentswrite comment
1 2 3 4 5
3 more votes to show rating
add to favorites
×
Save as Personal and add changes to this tab that will be seen only by you. Learn more ›
×
You can save this tab as Personal to edit and correct it or add notes. All changes will be seen only by you. Learn more »
launch autoscroll
font size
0
reset
guitar tuner
edit
Autoscroll
slow
fast
+/-
esc
set tempo
stop
Author
Difficulty
About this tab version
I try to be very accurate when I create a tab so the reader can understand it easily. This song is mostly the same verse and chorus repeated and is fairly easy to learn. It is a great way to practice and learn the bass as it is not terribly difficult. This band has many great songs with good bass lines I will try to make tabs for in the future. Any feedback is great. Thank you. Was this info helpful? Yes No
Tab by Chase Keller
12/10/2016

Tuning: Standard Eadgbe

The bass mainly stays consistent throughout the song with the same melody.
This is just what I am understanding from the song, although many of you may hear something different this 
should help place where the notes are.
~~~~~ = let the string ring out



[Intro/Verse 1]

    G G F D G F      G G F D G F   F D C F F F 

d---0-0-----0--------0-0-----0-------------------------------------\
g-------3-0---3----------3-0---3~~~3-0------------------------------\
a--------------------------------------3-----------------------------\
E----------------------------------------1-1-1------------------------\___ Play two times ( x2)
                                                                       \
    G G F D G F      D#D#D C D#F   F D C F F F                         /
                                                                      /
d---0-0-----0--------------------------------------------------------/
g-------3-0---3------1-1-0---1-3~~~3-0------------------------------/
a--------------------------3-----------3---------------------------/
E----------------------------------------1-1-1--------------------/


[Chorus]

d----------------------------------0-0-----0~~~~0-----------------|
g------1-1-0---1-3~~~~3-0---------------3-0-------3~~~~1----------|
a------------3------------3---------------------------------------|
E--------------------------1-1-1----------------------------------|

d----------------------------------0-0-----0~~~~~~~---------------|
g------1-1-0---1-3-3-3-0---------------3-0------------------------|
a------------3-----------3----------------------------------------|
E--------------------------1-1-1----------------------------------|


[Verse 2] ( This is all the same as verse 1)

d---0-0-----0--------0-0-----0-------------------------------------\
g-------3-0---3----------3-0---3~~~3-0------------------------------\
a--------------------------------------3-----------------------------\
E----------------------------------------1-1-1------------------------\___ Play two times ( x2)
                                                                      /
d---0-0-----0--------------------------------------------------------/
g-------3-0---3------1-1-0---1-3~~~3-0------------------------------/
a--------------------------3-----------3---------------------------/
E----------------------------------------1-1-1--------------------/


[Chorus]

d----------------------------------0-0-----0~~~~0-----------------|
g------1-1-0---1-3~~~~3-0---------------3-0-------3~~~~1----------|
a------------3------------3---------------------------------------|
E--------------------------1-1-1----------------------------------|

d----------------------------------0-0-----0~~~~~~~---------------|
g------1-1-0---1-3-3-3-0---------------3-0------------------------|
a------------3-----------3----------------------------------------|
E--------------------------1-1-1----------------------------------|


Ending

 -Fade out with the same note variations :]
    


I hope this tab helped some of you! 

Thanks
- Chase

            
            
Suggest correction
Creating personal tab
Creating personal tab
You can edit any tab online and save it as your Personal.

You can edit, replace or remove any tab part or add personal notes – all changes will be seen only by you.

Personal tabs can be accessed anytime from any device, even offline.
Learn more »
Give kudos to tab author, rate the tab!
1 2 3 4 5
comments
print report bad tab
guest
You may want to rate the tab now too:
select rating
Wanna post a correction for this tab? Suggest correction