Oops, an error
Loading. Please wait.

Here I Am tab

version 1
version 1

Whole song

  • This is a (mostly) complete version of this song, ... Show more

Interactive

by Soja
63,184 views 48 this week
2 commentsread comments
1 2 3 4 5
x 16
add to favorites
×
Save as Personal and add changes to this tab that will be seen only by you. Learn more ›
×
You can save this tab as Personal to edit and correct it or add notes. All changes will be seen only by you. Learn more »
launch autoscroll
font size
0
reset
how to read this tab
guitar tuner
edit
Autoscroll
slow
fast
+/-
esc
set tempo
stop
Author
Difficulty
Unregistered
Here I Am - Soja
-------------------------------------------------------------------------------
Tabbed by:Cody
Email:

Tuning:Standard

e|---------------------------------------------------------------------|
B|---------------------7-----------------------------------------------|
G|---7---7---9-7-----7---7---7-7-7h9-9-7-6------------------------------|
D|-9---9---9-----9-9-------9--------------9----------------------------|
A|---------------------------------------------------------------------|
E|---------------------------------------------------------------------|

e|---------------------------------------------------------------------|
B|-----------10-8-------7----------------------------------------------|
G|---7---7--------7---7---7---7-7h9-9-7-6------------------------------|
D|-9---9---9--------9-------9-------------9----------------------------|
A|---------------------------------------------------------------------|
E|---------------------------------------------------------------------|

Chords: Bm x24432, G 355433, D x57775, A 577655 .. Played throughout entire song

Bm                 G           D          A
She calls me when I'm in town, I pretend I'm not around



************************************

| h  Hammer-on

************************************

            
            
Suggest correction
Creating personal tab
Creating personal tab
You can edit any tab online and save it as your Personal.

You can edit, replace or remove any tab part or add personal notes – all changes will be seen only by you.

Personal tabs can be accessed anytime from any device, even offline.
Learn more »
comments
print report bad tab
2 comments total.
+2 reply
npeter385 10 Mar 03, 2010 07:41 PM

hey man, i like your tab. but ive been screwing around with it, and i think the end of each riff is a little off (after the 7,7,7,9 sequence in the middle). but after experimenting a little, i think i corrected it. not sure hough but see what you think
e|----------------------------------------------------------
B|---------------------7----------7-------------------------
G|---7---7---9-7-----7---7---7-7h9--7-6---------------------
D|-9---9---9-----9-9-------9--------------9-----------------
A|----------------------------------------------------------
E|----------------------------------------------------------

e|----------------------------------------------------------
B|-----------10-8-------7----------7------------------------
G|---7---7--------7---7---7---7-7h9--7-6--------------------
D|-9---9---9--------9-------9-------------9-----------------
A|----------------------------------------------------------
E|----------------------------------------------------------

+2 reply
Lem182 10 Aug 30, 2013 05:28 AM

This is a good tab, but it doesn't sound quite right to me. After playing around a bit, I think I got it right. I might be wrong, but sounds right when I play along to it. (This is my first time tabbing, so dont know how its going to come out)

e|----------------------------------------------------------
B|---------------------7---------------7--------------------
G|---7---7--7-9-7-----7---7---7--7-7h9---7h9-7p6------------
D|-9---9---------9--9-------7-------------------------------
A|----------------------------------------------------------
E|----------------------------------------------------------

e|----------------------------------------------------------
B|-----------10-8-------7-------------7---------------------
G|---7---7-7------7---7---7---7-7-7h9---7h9-7p6-------------
D|-9---9------------9-------7-------------------------------
A|----------------------------------------------------------
E|----------------------------------------------------------

e|----------------------------------------------------------
B|---------------------7---------------7--------------------
G|---7---7--7-9-7-----7---7---7--7-7h9---7h9-7p6------------
D|-9---9---------9--9-------7-------------------------------
A|----------------------------------------------------------
E|----------------------------------------------------------

e|----------------------------------------------------------
B|-----------10-8-------7-----------------------------------
G|---7---7-7------7---7---7---7-7-7h9-6---------------------
D|-9---9------------9-------7-------------------------------
A|----------------------------------------------------------
E|----------------------------------------------------------

guest
Wanna post a correction for this tab? Suggest correction