Oops, an error
Loading. Please wait.

Decide Youre Gone tab

26,543 views 57 this week
2 commentsread comments
1 2 3 4 5
x 9
add to favorites
×
Save as Personal and add changes to this tab that will be seen only by you. Learn more ›
×
You can save this tab as Personal to edit and correct it or add notes. All changes will be seen only by you. Learn more »
launch autoscroll
font size
0
reset
how to read this tab
guitar tuner
edit
Autoscroll
slow
fast
+/-
esc
set tempo
stop
Author
Difficulty
[Intro]
(G-D-Em-C)
   G                       D
e|---------------------------------------------|
B|-----------12-12-10-------------------12-10--|
G|-------12------------12------------11--------|
D|----12--------------------------12-----------|
A|-10--------------------------12--------------|
E|-------------------------10------------------|

   Em                 C    
e|--------7-7---------------------------------|
B|------------10-8-10----------------12-10-8--|
G|-----9----------------------9-9/12----------|
D|---9---------------------10-----------------|
A|-7--------------------10--------------------|
E|--------------------8-----------------------|

   G                       D
e|-------------------------10------------------------|
B|-----------12-12-10-------------------12-10/12\10--|
G|-------12------------12------------11--------------|
D|----12--------------------------12-----------------|
A|-10--------------------------12--------------------|
E|-------------------------10------------------------|

   Em                 C    
e|--------7-7--------------------------|
B|------------10-8-10-----------12-10--|
G|-----9----------------------9--------|
D|---9---------------------10----------|
A|-7--------------------10-------------|
E|--------------------8----------------|

[Interlude] 
(Trumpet): (G-D-Em-C) (x2)
  G         D             Em     C
e|----7--------------------------------------|
B|------8---10--10/12\10--8------------------|
G|--7-----7-----------------7--7/9--7--------|
D|------------------------------------10--9--|
A|-------------------------------------------|
E|-------------------------------------------|

  G         D             Em    C
e|----7----------------------7--8--10--8-----|
B|------8---10--10/12\10--8------------------|
G|--7-----7----------------------------------|
D|-------------------------------------------|
A|-------------------------------------------|
E|-------------------------------------------|

G                           D
I used to think that I cold go this all alone
          Em                     C
I used to think I could do it by myself, But I,
G                           D
I found another one like me walking alone
              Em                              C   
I don't think she stands a chance with no one else, but anyway...
G                 D
I'll be here, and you'll be there and
Em                C
we'll be by the phone (and you know)
G                D
I'll be sitting, watching you waiting 
    Em                  C
for you to decide you're, to decide you're gone

[Interlude]
(Trumpet): (G-D-Em-C) (x2)
  G         D             Em     C
e|----7--------------------------------------|
B|------8---10--10/12\10--8------------------|
G|--7-----7-----------------7--7/9--7--------|
D|------------------------------------10--9--|
A|-------------------------------------------|
E|-------------------------------------------|

  G         D             Em    C
e|----7----------------------7--8--10--8-----|
B|------8---10--10/12\10--8------------------|
G|--7-----7----------------------------------|
D|-------------------------------------------|
A|-------------------------------------------|
E|-------------------------------------------|

G                           D
And when I'm calling if I'm calling someone else
         Em                        C
it don't feel the same as when I'm calling you, I meat it
G                         D 
and in a world I more and more can't understand
            Em                          C
It would be hard to lose something that I do, but anyway...
G                 D
I'll be here, and you'll be there and
Em                C
we'll be by the phone (and you know)
G                D
I'll be sitting, watching you waiting 
    Em                  C     B
for you to decide you're, to decide you're gone

[Solo] 
(Em-B-C-B) (x2)
  Em               B             C          B
e|---------------------------------------------------|
B|-8-7-8-10-8-7-8--8-7-------7-----------------------|
G|---------------------9-8-8---9----7/9-7/9----9-8---|
D|-------------------------------10---------9--9-9---|
A|---------------------------------------------------|
E|---------------------------------------------------|

  Em               B             C                           B            
e|-------------------------------------------------------7-8-10--7/8\7--7/8\7--7/8\7--|
B|-8-7-8-10-8-7-8--8-7-------7---------------7-8--7-8-10------------------------------|
G|---------------------9-8-8---9---------7-9------------------------------------------|
D|-------------------------------10-9/10----------------------------------------------|
A|------------------------------------------------------------------------------------|
E|------------------------------------------------------------------------------------|

[Interlude]
(Trumpet only): (G-D-Em-C) (x2)
G         D             Em     C
e|----7--------------------------------------|
B|------8---10--10/12\10--8------------------|
G|--7-----7-----------------7--7/9--7--------|
D|------------------------------------10--9--|
A|-------------------------------------------|
E|-------------------------------------------|

  G         D             Em    C
e|----7----------------------7--8--10--8-----|
B|------8---10--10/12\10--8------------------|
G|--7-----7----------------------------------|
D|-------------------------------------------|
A|-------------------------------------------|
E|-------------------------------------------|

G                              D
So watch the days cuz they all turn into the night,
              Em                        C
and watch the sun cuz it turns into the moon
G                             D
and in a world that wont stop turning us around
             Em                   C
at least we know who we can turn to... now
G                 D
I'll be here, and you'll be there and
Em                C
we'll be by the phone (and you know)
G                D
I'll be sitting, watching you waiting 
    Em                  C
for you to decide you're, to decide, oh to decide!
G                 D
I'll be there, and you'll be here and
Em                C
we'll be by the phone (oh yea)
G                           D
And I'll be sitting while I watch, I'll be watching
        Em                                 C                                   G
while I wait for you to decide that you're gone, for you to decide that you're gone
                          D
Is it too much, is it too far, is it too long
               Em                                  C                                   G
and now you're gone and I'll be here and you'll be there and you'll decide that you're gone
                              D
Is it too much, and is it too far, and is it too long
         Em                           C                    G
and walk on and you'll decide you're, you'll decide you're gone



************************************

| /  Slide up
| \  Slide down

************************************

            
            
Suggest correction
Creating personal tab
Creating personal tab
You can edit any tab online and save it as your Personal.

You can edit, replace or remove any tab part or add personal notes – all changes will be seen only by you.

Personal tabs can be accessed anytime from any device, even offline.
Learn more »
comments
print report bad tab
2 comments total.
+1 reply
rehia 10 Dec 31, 2012 03:58 AM

Thank you

+2 reply
NEsurfer 10 Aug 29, 2013 05:07 PM

INTERLUDE (Trumpet): (G-D-Em-C) x2

G D Em C
e|----7--------------------------------------|
B|------8---10--10/12\10--8----8-------------|
G|--7-----7-----------------9-------7--------|
D|------------------------------------10--9--|
A|-------------------------------------------|
E|-------------------------------------------|

guest
You may want to rate the tab now too:
select rating
Wanna post a correction for this tab? Suggest correction