Oops, an error
Loading. Please wait.

Here I Am tab

1,446 views 1 this week
no commentswrite comment
1 2 3 4 5
2 more votes to show rating
add to favorites
×
Save as Personal and add changes to this tab that will be seen only by you. Learn more ›
×
You can save this tab as Personal to edit and correct it or add notes. All changes will be seen only by you. Learn more »
launch autoscroll
font size
0
reset
how to read this tab
guitar tuner
edit
Autoscroll
slow
fast
+/-
esc
set tempo
stop
Author
Difficulty
--------------------------------------------------------------------------------------------------
                                                   Here I Am - Soldiers of Jah Army
--------------------------------------------------------------------------------------------------

Tabbed by: Bruno Camargo
Email:

Tuning: Standard

PS: This is the lead guitar tab, so some parts may look like aren't right due to 
the rhythm guitar, but i'm pretty sure it's everything right.

Intro:

E|--------------------------------------------------------------------------|
B|-------------5---------7-------------7------------------------------------|
G|-7-7-4-7-4-7---7-5-4h7---7---7-7-7/9---7-6h7-4-7--------------------------|
D|---------------------------7----------------------------------------------|
A|--------------------------------------------------------------------------|
E|--------------------------------------------------------------------------|

E|--------------------------------------------------------------------------|
B|-------10-8-------7-------------7-----------------------------------------|
G|-4-7-7------7-4h7---7---7-7-7/9---7-6h7-4-7-------------------------------|
D|----------------------7---------------------------------------------------|
A|--------------------------------------------------------------------------|
E|--------------------------------------------------------------------------|

E|--------------------------------------------------------------------------|
B|-------------5---------7-------------7------------------------------------|
G|-7-7-4-7-4-7---7-5-4h7---7---7-7-7/9---7-6h7-4-7--------------------------|
D|---------------------------7----------------------------------------------|
A|--------------------------------------------------------------------------|
E|--------------------------------------------------------------------------|

E|--------------------------------------------------------------------------|
B|-------10-8-------7-------------------------------------------------------|
G|-4-7-7------7-4h7---7---7-7-7/9-6\4---------------------------------------|
D|----------------------7---------------------------------------------------|
A|--------------------------------------------------------------------------|
E|--------------------------------------------------------------------------|

Chorus:

   /
  | E|-7------------------3-----------2-------------------------------------|
  | B|-7------------------5-----------3-------------------------------------|
  | G|----------------------------------------------------------------------|
  | D|----------------------------------------------------------------------|
  | A|----------------------------------------------------------------------|
  | E|----------------------------------------------------------------------|
2 |
x |
  | E|-7-------------------3------------2----------------5------------------|
  | B|-7-------------------5------------3----------------5------------------|
  | G|----------------------------------------------------------------------|
  | D|----------------------------------------------------------------------|
  | A|----------------------------------------------------------------------|
  | E|----------------------------------------------------------------------|
   \

Verse:

E|-----------7-----7----------3-----3-------2-----2--------5------5--7------|
A|-----------7-----7----------5-----5-------3-----3--------5------5--7------|
D|--------------------------------------------------------------------------|
G|--------------------------------------------------------------------------|
B|--------------------------------------------------------------------------|
E|--------------------------------------------------------------------------|

E|-7--------3------3-7---------5--------------------------------------------|
A|-7--------5------5-7---------5--------------------------------------------|
D|--------------------------------------------------------------------------|
G|--------------------------------------------------------------------------|
B|--------------------------------------------------------------------------|
E|--------------------------------------------------------------------------

E|-7---------7---------------5-----------5------------7---------------------|
A|-7---------7---------------3-----------5------------7---------------------|
D|--------------------------------------------------------------------------|
G|--------------------------------------------------------------------------|
B|--------------------------------------------------------------------------|
E|--------------------------------------------------------------------------|

E|-----------------3--------------7----------5---5--------------------------|
A|-----------------5--------------7----------5---5--------------------------|
D|--------------------------------------------------------------------------|
G|--------------------------------------------------------------------------|
B|--------------------------------------------------------------------------|
E|--------------------------------------------------------------------------|

Chorus

Verse:

E|-----------7-----7----------3-----3-------2-----2--------5------5---------|
A|-----------7-----7----------5-----5-------3-----3--------5------5---------|
D|--------------------------------------------------------------------------|
G|--------------------------------------------------------------------------|
B|--------------------------------------------------------------------------|
E|--------------------------------------------------------------------------|

E|-----------7-----7----------3-----3----------------------5----------------|
A|-----------7-----7----------5-----5----------------------5----------------|
D|--------------------------------------------------------------------------|
G|--------------------------------------------------------------------------|
B|--------------------------------------------------------------------------|
E|--------------------------------------------------------------------------|

E|-7------------------3-----------2-----------------------------------------|
B|-7------------------5-----------3-----------------------------------------|
G|--------------------------------------------------------------------------|
D|--------------------------------------------------------------------------|
A|--------------------------------------------------------------------------|
E|--------------------------------------------------------------------------|

E|-7-------------------3------------2----------------5-5-5------------------|
B|-7-------------------5------------3----------------5----------------------|
G|--------------------------------------------------------------------------|
D|--------------------------------------------------------------------------|
A|--------------------------------------------------------------------------|
E|--------------------------------------------------------------------------|

Chorus

Intro

Verse:

                                  (Play this part with a low sound)
E|---------------------------------2----------------------------------------|
B|-------7/10----------------------3-3/5---------2h3~-----------------------|
G|-------7/9----------------------------------------------------------------|
D|--------------------------------------------------------------------------|
A|--------------------------------------------------------------------------|
E|--------------------------------------------------------------------------|

E|---------------------------7--------5-------------------------------------|
B|----------7/10-------------7--------5-------------------------------------|
G|----------7/9-------------------------------------------------------------|
D|--------------------------------------------------------------------------|
A|--------------------------------------------------------------------------|
E|--------------------------------------------------------------------------|
                                   (Play this part louder than the first time)
E|---------------------------------2----------------------------------------|
B|-------7/10----------------------3-3/5---------2h3~-----------------------|
G|-------7/9----------------------------------------------------------------|
D|--------------------------------------------------------------------------|
A|--------------------------------------------------------------------------|
E|--------------------------------------------------------------------------|

E|--------------------------------------------------------------------------|
B|------7/10----------------------------------------------------------------|
G|------7/9-----------------------------------------------------------------|
D|--------------------------------------------------------------------------|
A|--------------------------------------------------------------------------|
E|--------------------------------------------------------------------------|

Chorus

E|--------------------------------------------------------------------------|
B|------------------------------------------------------------2h3~----------|
G|----------------------------------------------------------2---------------|
D|--------------------------------------------------------------------------|
A|--------------------------------------------------------------------------|
E|--------------------------------------------------------------------------|

E|--------------------------------------0-2-------5-------------------------|
B|----------------------------------2h3---3-------5--------2-3-3------------|
G|--------------------------------2----------------------2------------------|
D|--------------------------------------------------------------------------|
A|--------------------------------------------------------------------------|
E|--------------------------------------------------------------------------|

E|--------------------------------------------------------------------------|
B|-------------------------------5/7-------------------------------------2/3|
G|---------------------------------------------------------------------2----|
D|-----------------------------7--------------------------------------------|
A|--------------------------------------------------------------------------|
E|--------------------------------------------------------------------------|

E|---------------------------------2----------------------------------------|
B|-------------------------------3---------------------------------------2h3|
G|---------------------------------------------------------------------2----|
D|-------------------------------------------------------------------0------|
A|--------------------------------------------------------------------------|
E|--------------------------------------------------------------------------|

Outro:

PS: It's the same thing as the chorus, but the sound is lower.

   /
  | E|-7------------------3-----------2-------------------------------------|
  | B|-7------------------5-----------3-------------------------------------|
  | G|----------------------------------------------------------------------|
  | D|----------------------------------------------------------------------|
  | A|----------------------------------------------------------------------|
  | E|----------------------------------------------------------------------|
2 |
x |
  | E|-7-------------------3------------2----------------5------------------|
  | B|-7-------------------5------------3----------------5------------------|
  | G|----------------------------------------------------------------------|
  | D|----------------------------------------------------------------------|
  | A|----------------------------------------------------------------------|
  | E|----------------------------------------------------------------------|
   \

Intro

************************************

| /   slide up
| \   slide down
| h   hammer-on
| p   pull-off
| ~   vibrato
| +   harmonic
| x   Mute note
| b   Bend
| pb  Pre-bend
| br  Bend release
| pbr Pre-bend release
| brb Bend release bend

************************************

            
            
Suggest correction
Creating personal tab
Creating personal tab
You can edit any tab online and save it as your Personal.

You can edit, replace or remove any tab part or add personal notes – all changes will be seen only by you.

Personal tabs can be accessed anytime from any device, even offline.
Learn more »
Give kudos to tab author, rate the tab!
1 2 3 4 5
comments
print report bad tab
guest
You may want to rate the tab now too:
select rating
Wanna post a correction for this tab? Suggest correction